Cifra Club

El reino olvidado

Rata Blanca

Cifrado: Principal (guitarra y guitarra eléctrica)
Selo Cifra Club: esta cifra foi revisada para atender aos critérios oficiais da nossa Equipe de Qualidade.
tono: C#m
Riff A

E|-11----11----11----11-----| 12----12----12----12-----|
B|---9-9---9-9---9-9---9-9--|--9-9---9-9---9-9---9-9--|
G|--------------------------|-------------------------|
D|--------------------------|-------------------------|
A|--------------------------|-------------------------|
E|--------------------------|-------------------------|

E|-11----11----11----11----11----11-----| 9-----9-----|
B|---7-7---7-7---7-7---7-7---7-7---7-7--|-7-7---7-7--|
G|--------------------------------------|------------| X4
D|--------------------------------------|------------|
A|--------------------------------------|------------|
E|--------------------------------------|------------|

Cuando comienza la tercera vuelta del
Riff A se escucha otra guitarra haciendo lo siguente…

Riff B
E|-11----11----11----11----| 12-----12-----12-----12----|
B|---9-9---9-9---9-9---9-9-|--9-9----9-9----9-9----9-9-|
G|-------------------------|---------------------------|
D|-------------------------|---------------------------|
A|-------------------------|---------------------------|
E|-------------------------|---------------------------|

E|-14-----14-----14-----14-----14-------|
B|---12-12--12-12--12-12--12-12--12-12--|
G|--------------------------------------|
D|--------------------------------------|
A|--------------------------------------|
E|--------------------------------------|

E|-14------14-------|
B|---11-11---11-11--|
G|------------------| X2
D|------------------|
A|------------------|
E|------------------|

Riff C

E|----------------------------------|
B|----------------------------------|
G|----------------------------------|
D|----------------------------------|
A|-6--4--6----6--4--6---------2-4-2-|
E|-4--2--4----4--2--4---0-2-4-------|

E|---------------------------------|
B|---------------------------------|
G|---------------------------------| X2
D|----------------------------4----|
A|-6--4--6----6--4--6---------2-4--|
E|-4--2--4----4--2--4---0-2-4---2--|


Riff D

E|------------------|
B|------------------|
G|------------------|
D|------------------|
A|-4-6-7-6h7p6-4-2--|
E|------------------|

G#5
   Hoy que los hombres perdidos están - Riff C
G#5
   En los dominios de la oscuridad - Riff C

E5          B#5     C#5       Riff D
  Desde la eternidad, ellos regresarán

E#5 B#5        C#5           B5        C#5  B#5
    Los viejos reyes vendrán con la tempestad



Riff A
La oscuridad sabes que está desolando la tierra y el mar
Riff A
Tiempo sin paz, odio y dolor, necesito poder despertar
Riff B
Tu corazón, te llevará, hacia el reino olvidado que está
         F#5   B5  F#5
Solo dentro de ti…

Riff C X2

Igual que en la primera estrofa:

Puedes ser rico mendigo o ladron
Duelen las yagas en tu corazon
Volvamos a empezar, y el reino logrará
Salvar la tierra y a toda la humanidad.

La oscuridad sabes que está desolando
La tierra y el mar
Tiempo sin paz, odio y dolor, necesito
Poder despertar
Tu corazón, te llevará, hacia el reino
Olvidado que está
Solo dentro de ti…

G#5

Aquí sigue el solo mientras Walter va haciendo el solo,
el bajo acompaña con Riff C…

Solo:

E|-------------------------------------------------|
B|-------------------------------------------------|
G|-------------------------------------------------|
D|------6--9--6------6--9--6--4/6--4-------------6-|
A|-6--9---------6--9-----------------6--5--4-------|
E|--------------------------------------------7----|

E|----------------------------------------------------|
B|--------------------------7/9--7--------------------|
G|------6--7--6---6--7--6----------8--7--6---6--7~7~7---|
D|-6--9---------9---------9----------------9----------|
A|----------------------------------------------------|
E|----------------------------------------------------|

E|------------------------------14----------16--------14|
B|---12-14-15P14P12----15P14P12----15P14P12---15P14P12--|
G |13----------------13----------------------------------|
D|------------------------------------------------------|
A|------------------------------------------------------|
E|------------------------------------------------------|

E|--------16-----16-19-16--16-19-21-21/22-21-19---------|
D |15P14P12--16-19------------------------------21--19-21|
G|------------------------------------------------20----|
D|------------------------------------------------------|
A|------------------------------------------------------|
E|------------------------------------------------------|

E |19----16-14--------------------|
B|--21--------16-15-14--14-------|
G|--------------------16--16--13-|
D|-------------------------------|
A|-------------------------------|
E|-------------------------------|

E|----12----11---9---7--|
B|--14----12---10---9---|
G |13----11----9----8----|
D|----------------------|
A|----------------------|
E|----------------------|

E|-------------------------------|
B|-------------------------------|
G|---4-6-6/8-6-4-6-4-6/8-4-6-4---|
D|-6---------------------------6-|
A|-------------------------------|
E|-------------------------------|

Esta es la parte final del solo donde debes
tocarla con un poco más de velocidad…

E|----------------------------16-19-16--------16-19-20|
B|------------------------16-19--------19-16-19-------|
G|------------------16-18-----------------------------|
D|------------16-18-----------------------------------|
A|------16-18-----------------------------------------|
E |16-19-----------------------------------------------|

Cuando termina el solo, la banda hace un silencio,
y sigue el teclado con el intro…

La oscuridad sabes que esta desolando la tierra y el mar
Tiempo sin paz, odio y dolor, necesito poder despertar
Tu corazón te llevará hacia el reino olvidado que está
Lejos de ti…

Riff A x2
Riff B x1

Riff E

E|--------------------|
B|--------------------|
G|--------------------| X4
D|--------------------|
A|-------7-7/9-7-6-4--|
E|-4-6-7--------------|

En la versión de estudio el sonido va disminuyendo,
Pero en vivo termina asi…

E|----------------------|
B|----------------------|
G|----------------------|
D|----------------------|
A|--6--4--6----6--4--6--|
E|--4--2--4----4--2--4--|

Y FIN…

Bue, espero que esta transcripcion les sirva,
Noce si esta muy bien,
Pero para el oído humano sale.. bue,
Q les vaya bn, Dios los bendiga…
Otros videos de esta canción
    2.210 exhibiciones
      • ½ Tono
      • Am
      • Bbm
      • Bm
      • Cm
      • C#m
      • Dm
      • Ebm
      • Em
      • Fm
      • F#m
      • Gm
      • G#m
    • Agregar a la lista

    Afinação da cifra

    Afinador online

      Ops (: Contenido disponible solo en portugués.
      OK