Cifra Club

Guerreros del arco iris

Rata Blanca

Cifrado: Principal (guitarra y guitarra eléctrica)
Selo Cifra Club: esta cifra foi revisada para atender aos critérios oficiais da nossa Equipe de Qualidade.
tono: Ebm
E|------------------------------------------------------------------------|
B|------------------------------------------------------------------------| X 3
G|------------------------------------------------------------------------| veces
D|------------------------------------------------------------------------|
A|-0-0-0-0-0-3-5-7-0-0-0-0-0-8-7-5-0-0-0-0-0-3-5-7-8-7-5-7-5-3-0-0-0-0-0--|
E|------------------------------------------------------------------------|


E|-------------------------------------------------------------------|
B|-------------------------------------------------------------------|
G|-------------------------------------------------------------------|
D|-------------------------------------------------------------------|
A|-0-0-0-0-0-3-5-7-0-0-0-0-0-8-7-5-0-0-0-0-0-3-5-7-8-7-5-7-5-3-5-3-2-|
E|-------------------------------------------------------------------|


E|---------------------------------------------------------------|
B|---------------------------------------------------------------| X 8
G|---------------------------------------------------------------| veces
D|---------------------------------------------------------------|
A|---------------------------------------------------------------|
E|-0-2-2-2-2-2-2-2-2-2-2-2-2-2-2-0-2-2-2-2-2-2-2-2-2-2-2-2-2-2-0-|


E|----------------------------------------------------------------|
B|----------------------------------------------------------------|
G|-7--9-----9-----6--7-----9---9--7-----9-----6--7-----6--7--9----|
D|-7--9--7--9--4--6--7--9--9---9--7--7--9--4--6--7--9--6--7--9----|
A|-5--7--7--7--4--4--5--9--7---7--5--7--7--4--4--5--9--4--5--7----|
E|-------5-----2--------7------------5-----2--------7-------------|


E|-----------------------------------------------------------|
B|-----------------------------------------------------------| X 8
G|-----------------------------------------------------------| veces
D|-----------------------------------------------------------|
A|-----------------------------------------------------------|
E|-0-2-2-2-2-2-2-2-2-2-2-2-2-2-0-2-2-2-2-2-2-2-2-2-2-2-2-2-0-|


E|----------------------------------------------------------------------|
B|----------------------------------------------------------------------|
G|-7--9-----9-----6--7-----9---9--7-----9-----6--7-----7---------7------|
D|-7--9--7--9--4--6--7--9--9---9--7--7--9--4--6--7--9--7----9----7----7-|
A|-5--7--7--7--4--4--5--9--7---7--5--7--7--4--4--5--9--5----9----5----7-|
E|-------5-----2--------7------------5-----2--------7-------7---------5-|


E|-----------------------------------------------------------|
B|-----------------------------------------------------------|
G|-----------------------------------------------------------|
D|-------------------------------4/6--7--7/9--7--6-----------|
A|-2--4--2~--9--7--5--7/9--7--5---------------------7--------|
E|-----------------------------------------------------------|


E|-------------------14-16-16/17~-16b-14-------------------------------------------|
B|------14-15-15/17~---------------------14~-14-15-17-17b--------------------------|
G|-/17~---------------------------------------------------16~-18-16-16~-18-16-15~--|
D|---------------------------------------------------------------------------------|
A|---------------------------------------------------------------------------------|
E|---------------------------------------------------------------------------------|


E|-19/21~-19b-17-19~-19-17-16-17~-17-16----16~-14-16-17-17b-17~-17/19-17~-|
B|----------------------------------------19------------------------------|
G|------------------------------------------------------------------------|
D|------------------------------------------------------------------------|
A|------------------------------------------------------------------------|
E|------------------------------------------------------------------------|


E|-19-17-15-17-15-14-15-14-12-14-12-10-12-10-8-10-8-7---------------|
B|----------------------------------------------------12b-14~~------|
G|------------------------------------------------------------------|
D|------------------------------------------------------------------|
A|------------------------------------------------------------------|
E|------------------------------------------------------------------|


E|---------------------------------------------------9-10-12-9-10-12-10-9-----------|
B|-------------------------------------7-9-10-7-9-10----------------------10-9-7-7~-|
G|-------------------------5-6-7-5-6-7----------------------------------------------|
D|-------------4-6-7-4-6-7----------------------------------------------------------|
A|-4-6-7-4-6-7----------------------------------------------------------------------|
E|----------------------------------------------------------------------------------|


E|-------------16-----10-12-14-12-10-12-10-8-10-8-7-8-7-5-7-5-3-5-3-2-5-3-2-2b-2~---|
B|-/19~-19/21~----17~---------------------------------------------------------------|
G|----------------------------------------------------------------------------------|
D|----------------------------------------------------------------------------------|
A|----------------------------------------------------------------------------------|
E|----------------------------------------------------------------------------------|


E|-----------------------------------------------------------|
B|-----------------------------------------------------------|
G|-4b-4-4-4-4-4-4-4-4-4--------------------------------------|
D|-----------------------------------------------------------|
A|-----------------------------------------------------------|
E|-----------------------------------------------------------|
Otros videos de esta canción
    14 exhibiciones
      • ½ Tono
      • Am
      • Bbm
      • Bm
      • Cm
      • C#m
      • Dm
      • Ebm
      • Em
      • Fm
      • F#m
      • Gm
      • G#m
    • Agregar a la lista

    Afinação da cifra

    Afinador online

      Ops (: Contenido disponible solo en portugués.
      OK