Cifra Club

Otoño Medieval

Rata Blanca

Cifrado: Principal (guitarra y guitarra eléctrica)
Selo Cifra Club: esta cifra foi revisada para atender aos critérios oficiais da nossa Equipe de Qualidade.
tono: C
          *1 Am           Dm                  Am
eb|-5--7-|-8--------7--5-|-1-----------0-----|-0-----------------|
Bb|------|-----5---------|-------3--------3--|-------------3--1--|
Gb|------|---5---5-------|----2-----2--------|-------2-----------|
Db|------|---------------|-0-----------------|----2-----2--------|
Ab|------|-0-------------|-------------------|-0-----------------|
Eb|------|---------------|-------------------|-------------------|


  Dm                  F                   E                   Am
1|-------1-----------|-------------------|-------------------|-------------------|
 |-3-----------1--0--|-1-----------0-----|----------------0--|-1-----------------|
 |----2-----2--------|----------------2--|-1-----------2-----|-------2-----2-----|
 |-0-----------------|-------3-----------|-------2-----------|----2-----2-----2--|
 |-------------------|----3-----3--------|----2-----2--------|-0-----------------|
6|-------------------|-1-----------------|-0-----------------|-------------------|


  Am                     Am              Dm                 Am
1|--------------||-5--7-|-8--------7--5-|-1----------0-----|--0------------------|
 |--------------||------|-5----5--------|-------3-------3--|--------------3--1---|
 |--------2-----||------|-5--5---5------|----2-----2-------|--------2------------|
 |-----2-----2--||------|---------------|-0----------------|-----2-----2---------|
 |--0-----------||------|-0-------------|------------------|--0------------------|
6|--------------||------|---------------|------------------|---------------------|


  Dm                   CI F                E                   Am
1|--------1-----------|-------------------|-------------------|-------------------|
 |--3-----------1--0--|-1-----------0-----|-------------1--0--|-------------------|
 |-----2-----2--------|----------------2--|-1-----------------|-2-----2-----2-----|
 |--0-----------------|-------3-----------|-------2-----------|----2-----2-----2--|
 |--------------------|----3-----3--------|----2-----2--------|-0-----------------|
6|--------------------|-1-----------------|-0-----------------|-------------------|


          Dm                   Am                   Dm                   Am
1|-------|--------0-----1-----|--0-----------------|--------1-----------|-------0------------|
 |-0--1--|--3-----------------|--1-----------3--1--|--3-----------1--0--|-1-----------0--1---|
 |-------|-----2-----2-----2--|--2-----2-----------|-----2-----2--------|--------------------|
 |-------|--0-----------------|-----2-----2--------|--0-----------------|----2-----2---------|
 |-------|--------------------|--0-----------------|--------------------|-0------------------|
6|-------|--------------------|--------------------|--------------------|--------------------|


  Dm                               E *2            E/G#                   Am
1|-------0-----1-----|-1--3--3/5--|-4----------5--|--0-----------||-5--7-|-8-----------7--5--|
 |-3--------3-----3--|-3--5--5/6--|------5--------|--------0-----||------|-------5-----------|
 |----2--------------|------------|---4-----4-----|--------------||------|----5-----5--------|
 |-0-----------------|------------|---------------|-----2-----2--||------|-------------------|
 |-------------------|------------|---------------|--------------||------|-0-----------------|
6|-------------------|-1----------|-0-------------|--4-----------||------|-------------------|


  Dm                  Am                   Dm                   F
1|-1-----------0-----|--0-----------------|--------1-----------|--------------------|
 |-------3--------3--|--------------3--1--|--3-----------1--0--|--1-----------0-----|
 |----2-----2--------|--------2-----------|-----2-----2--------|-----------------2--|
 |-0-----------------|-----2-----2--------|--0-----------------|--------3-----------|
 |-------------------|--0-----------------|--------------------|-----3-----3--------|
6|-------------------|--------------------|--------------------|--1-----------------|


  E                     Am                  Am
1|---------------------|-------------------|-------------||
 |------------------0--|-1-----------------|-------------||
 |--1------------2-----|-------2-----2-----|-------2-----||
 |--------2------------|----2-----2-----2--|----2-----2--||
 |-----2-----2---------|-0-----------------|-0-----------||
6|--0------------------|-------------------|-------------||


El resto del tema lleva varias guitarras.

*1 Con media cejilla 

*2 : E 1|--4----
        |--5----
        |--4----
        |-------
        |-------
       6|-------
Otros videos de esta canción
    10.707 exhibiciones
      • ½ Tono
      • A
      • Bb
      • B
      • C
      • Db
      • D
      • Eb
      • E
      • F
      • F#
      • G
      • Ab
    • Agregar a la lista

    Afinação da cifra

    Afinador online

      Ops (: Contenido disponible solo en portugués.
      OK