Cifra Club

Breaking all the Rules

Ratos de Porão

Cifrado: Principal (guitarra y guitarra eléctrica)
tono: G
E
 E|-------------------------------------------------
 B|-----------------------------------------------
 G|------------------------------------------------
 D|--------------------------------------5/7-5------
 A|----------5--7--7--5--7------5--7----------------
 E|----7----------------------7---------------------

 E|-------------------------------------------------
 B|-------------------------------------------------
 G|-------------------------------------------------
 D|----------------------------------------7--------
 A|------5--7--7--5--7--5----------5--5----5--------
 E|---7----------------------7--5--3--3-------------

E|--------------------------------------------------
B|-----------------------------------------------
G|-------------------------------------------------
D|--------------------------------------5/7-5-------
A|----------5--7--7--5--7------5--7-----------------
E|----7----------------------7---------------------

 E|-------------------------------------------------
 B|-------------------------------------------------
 G|-------------------------------------------------
 D|-------------5--5--------------------------------
 A|------5--7---------7--5--7--7--5---0---5-5--7----
 E|---7-----------------------------------3-3--5----
  
Começa meio devagar (não muito)

E                 B             C# D
We are the people one and all
               A   G       E
From deliverance to the fall 
                B               C# D
From the battle and the heat
            A G       E 
To our triumph and defeat 
G            D               E       
We are the young ones crying out     
                                     
G          D            C            C5 D5
Full of anger full of doubt 
G            D                  E   
And we're breaking all of the rules      

                                   A|-2-3-2-3-2-3--2-0---
                                   E|------------------2- 


G          D            C       C5 D5
Never choosing to be fools


Intro  Agora aumenta a velocidade abafando as corda 

We are tired of being used
We are constantly excused 
In the battle and the heat 
In the shadow of retreat 
We are the young ones crying out 

Full of anger full of doubt 
And we're breaking all of the rules

Intro

Solo :faz a base normal do começo


Never choosing to be fools 
We are the people one and all 
From deliverance to the fall 
From the bitter to the brave 
From the cradle to the grave 
We are the young ones crying out 

Full of anger full of doubt 
And we're breaking all of the rules 

Never choosing to be fools
Composición de Keith Reed / Peter Frampton
Colaboración y revisión:
  • peter
112 vistas
    • ½ Tono
    • A
    • Bb
    • B
    • C
    • Db
    • D
    • Eb
    • E
    • F
    • F#
    • G
    • Ab
  • Agregar a la lista

    0 comentarios

    Ver todos los comentarios

    ¿Lograste tocar?

    0 Tocaron 0 Aún no

    ¡Graba un video tocando Breaking all the Rules y envíanoslo!

    00:00 / 00:00
    Outros vídeos desta música
    Repetir Calidad Automático
    Outros vídeos desta música
    00:00 / 00:00
    Automático
    OK