Cifra Club

Cérebros Atômicos

Ratos de Porão

Cifrado: Principal (guitarra y guitarra eléctrica)
tono: C
Riff 1

e|-----------------------|
b|-----------------------|
g|-4-5-7-8-4-5-7-8-...---|
d|-4-5-7-8-4-5-7-8-...---|
a|-2-3-5-6-2-3-5-6-...---|
E|-----------------------|

Riff 2
e|-----------------------|
b|-----------------------|
g|-4-7-8-4--5-7-8-4-...--|
d|-4-7-8-4--5-7-8-4-...--|
a|-3-5-6-2--3-5-6-2-...--|
E|-----------------------|

Riff 1

Cérebros atômicos
Programados para destruir
Pra perturbar o mundo
Só pra violentar!!

Riff 2

Riff 1
Em nome do progresso
Em nome do progresso

Riff 1

Mentes vazias
Só pensam em lucrar
Só pensam em si mesmo
Só pensam em matar

Riff 2

Riff 1
Em nome do progresso
Em nome do progresso
Composición de RxDxPx
Colaboración y revisión:
  • leonardo bythors
38 vistas
    • ½ Tono
    • A
    • Bb
    • B
    • C
    • Db
    • D
    • Eb
    • E
    • F
    • F#
    • G
    • Ab
  • Agregar a la lista

    0 comentarios

    Ver todos los comentarios

    ¿Lograste tocar?

    0 Tocaron 0 Aún no

    ¡Graba un video tocando Cérebros Atômicos y envíanoslo!

    00:00 / 00:00
    Outros vídeos desta música
    Repetir Calidad Automático
    Outros vídeos desta música
    00:00 / 00:00
    Automático
    OK