Cifra Club

Diet Paranóia

Ratos de Porão

Cifrado: Principal (guitarra y guitarra eléctrica)
tono: G
eBGDAE

e|----------|
B|----------|
G|----------|
D|----------|
A|-2--7--5--|
E|-0--5--3--|
                                            2x
e|--------------------------------------------|----|
B|--------------------------------------------|----|
G|--------------------------------------------|----|
D|-7/9-9999-7/9-999-12/9-7/9-9999-7/9-999-9---|----|
A|-5/7-7777-5/7-777-10/7-5/7-7777-5/7-777-7-9-|-7--|
E|------------------------------------------7-|-5--|

Versos:
Mesmo que acima 5/7-7777...
Hey you fat clown
Don't you think it's time to lose some pounds...

Chorus:
                                   4x
e|-----------------------------------|
B|-----------------------------------|
G|-----------------------------------|
D|--------------------2--------------|
A|-2------------------0---5----------|
E|-0---3br0-3br0-3br0-----3--3b---r0-|

e|------------------------|
B|------------------------|
G|------------------------|
D|------------------------|
A|-2--7--5-------5--7--2--|
E|-0--5--3-------3--5--0--|

É isso o q eu consegui!

Leonardo Almeida Iglesias para Cifra Club
Compositor não encontrado.
45 vistas
    • ½ Tono
    • A
    • Bb
    • B
    • C
    • Db
    • D
    • Eb
    • E
    • F
    • F#
    • G
    • Ab
  • Agregar a la lista

    0 comentarios

    Ver todos los comentarios

    ¿Lograste tocar?

    0 Tocaron 0 Aún no

    ¡Graba un video tocando Diet Paranóia y envíanoslo!

    00:00 / 00:00
    Outros vídeos desta música
    Repetir Calidad Automático
    Outros vídeos desta música
    00:00 / 00:00
    Automático
    OK