Cifra Club

Juventude perdida

Ratos de Porão

Cifrado: Principal (guitarra y guitarra eléctrica)
tono: A
riff 1

e|-------------------------------|
b|-------------------------------|
g|-------------------------------|
d|---------9-7-99/7/9------------|
a|-9999999-7-5-77/5/7 -9-999...--|
E|-7777777-------------7-777...--|

riff 2

e|-------------------------------|
b|-------------------------------|
g|------------11-------------11--|
d|-----99-9-9--9------99-9-9--9--|
a|-9-9-77-7-7-----9-9-77-7-7-----|
E|-7-7------------7-7------------|

riff 1
A segurança da terra 
está em nossas mãos
Fazendo maldade
destruindo a cidade
num mundo obsceno
onde tudo acontece
estamos fudidos 
os velhos vão sentir

riff 2

Juventude perdida

riff 1
A segurança da terra 
está em nossas mãos
drogados vadios 
não querem nada com a vida
os velho ficarão num 
asilo infernal
trabalhar não importa
queremos nos divertir

riff 2
juventude perdida
00:00 / 00:00
Otros videos de esta canción
Repetir
Otros videos de esta canción
Compositor no encontrado.
Colaboración y revisión:
  • leonardo bythors
63 vistas
    • ½ Tono
    • A
    • Bb
    • B
    • C
    • Db
    • D
    • Eb
    • E
    • F
    • F#
    • G
    • Ab
  • Agregar a la lista

    0 comentarios

    Ver todos los comentarios

    ¿Lograste tocar?

    0 Tocaron 0 Aún no

    ¡Graba un video tocando Juventude perdida y envíanoslo!

    00:00 / 00:00
    OK