Cifra Club

Pobreza

Ratos de Porão

Cifrado: Principal (guitarra y guitarra eléctrica)
tono: C
Normal (eBGDAE)

Cada + representa 1 tempo!
   1      2      3      4
e|----------------------------|
B|----------------------------|
G|----------------------------|
D|-8-5--5-8-5--5-8-5--5-7-6-5-|
A|-8-5--5-8-5--5-8-5--5-5-4-3-|
E|-6-3--3-6-3--3-6-3--3-------|
   +      +      +      +
e|----------------------------|
B|----------------------------|
G|----------------------------|
D|-8-5--5-8-5--5-8-5--5-3-3-4-|
A|-8-5--5-8-5--5-8-5--5-3-3-4-|
E|-6-3--3-6-3--3-6-3--3-1-1-2-|

Toque as duas barras aí em cima, uma vez cada uma!
Isto é tocado na Introdução e nos versos

Depois:
                 4x
e|-----------------|-----------------|
B|-----------------|-----------------|
G|-----------------|-----------------|
D|-----------------|----------8~~~~~-|
A|-9-10-10-9-11-11-|-\9-7\-x--8~~~~~-|
E|-7-8--8--7-9--9--|-\7-8\-x--6~~~~~-|
                     ///////      Pobreza...

/////// = Muito Rápido!

Obrigado! Eu não sei o Album pq tirei de um vídeo
ao vivo de 2001!
00:00 / 00:00
Otros videos de esta canción
Repetir
Otros videos de esta canción
Composición de Rafael
71 vistas
    • ½ Tono
    • A
    • Bb
    • B
    • C
    • Db
    • D
    • Eb
    • E
    • F
    • F#
    • G
    • Ab
  • Agregar a la lista

    0 comentarios

    Ver todos los comentarios

    ¿Lograste tocar?

    0 Tocaron 0 Aún no

    ¡Graba un video tocando Pobreza y envíanoslo!

    00:00 / 00:00
    OK