Cifra Club

Problemão

Ratos de Porão

Cifrado: Principal (guitarra y guitarra eléctrica)
tono: F
E|-------------||
B|-------------||
G|-10-9-8-7-6--||
D|-10-9-8-7-6--||  Intro e refrão
A|-8--7-6-5-4--||
E|-------------||

E|---------------------6-5-----------------------------------------||
B|------------------------7-6--------------------------------------||
G|---------------------------7-6-5---------------------10-9-8-7-6--||
D|-33--3-3-6---33--3-3-------------33--3-3-6---33--3-3-10-9-8-7-6--||
A|-33--3-3-6---33--3-3-------------33--3-3-6---33--3-3-8--7-6-5-4--||
E|-11--1-1-4---11--1-1-------------11--1-1-4---11--1-1-------------||

E|--------------------6-5-----------------------------------------||
B|-----------------------7-6-------------------------5h6p5--6-5---||
G|--------------------------7-6-5--------------------------5---5--|| 
D|-33--3-3-6---33-3-3-------------33--3-3-6---33--3-3-------------||
A|-33--3-3-6---33-3-3-------------33--3-3-6---33--3-3-------------||
E|-11--1-1-4---11-1-1-------------11--1-1-4---11--1-1-------------||

Eu não entendo como alguém pode viver
Desempregado e com filho pra sustentar
Desde do começo que te põe no olho da rua
Miséria já começa a espreitar

E|-------------------------------------||
B|-------------------------------------||
G|---------------3-33----------3-------||
D|-22--2-22-5-55-3-33-22--2-22-3----3--||
A|-22--2-22-5-55-1-11-22--2-22-1----3--||
E|-00--0-00-3-33------00--0-00------1--||

Você tem medo da incerteza
Você não ver a solução
Não tem comida pra por na mesa
Não é da conta do patrão

E|-------------||
B|-------------||
G|-10-9-8-7-6--||
D|-10-9-8-7-6--||
A|-8--7-6-5-4--||
E|-------------||

Vai se descolar
Não olhe pra trás
Se deteriorar
Vai de bar em bar


E|--------------------------------------------||
B|-----------------------------5b-5555555-----||
G|-----------------------------5b-5555555-----||
D|-33--3-3-6---33--3-3------------------------||
A|-33--3-3-6---33--3-3------------------------||
E|-11--1-1-4---11--1-1------------------------||

E|--------------------6-5-----------------------------------------||
B|-----------------------7-6-------------------------5h6p5--6-5---||
G|--------------------------7-6-5--------------------------5---5--|| 
D|-33--3-3-6---33-3-3-------------33--3-3-6---33--3-3-------------||
A|-33--3-3-6---33-3-3-------------33--3-3-6---33--3-3-------------||
E|-11--1-1-4---11-1-1-------------11--1-1-4---11--1-1-------------||

A vida é dura
E você tem que entende
Não é fácil resolver com um problemão
Não fica assim só pensando em morre
Coitado faz da tripa ao coração

E|-------------------------------------||
B|-------------------------------------||
G|---------------3-33----------3-------||
D|-22--2-22-5-55-3-33-22--2-22-3----3--||
A|-22--2-22-5-55-1-11-22--2-22-1----3--||
E|-00--0-00-3-33------00--0-00------1--||

Você tem medo da incerteza
Você não ver a solução
Não tem comida pra por na mesa
Não é da conta do patrão

E|-------------||
B|-------------||
G|-10-9-8-7-6--||
D|-10-9-8-7-6--||
A|-8--7-6-5-4--||
E|-------------||

Vai se descolar
Não olhe pra trás
Se deteriorar
Vai de bar em bar

E|------------------------------------------------||
B|------------------------------------------------||
G|----------------0-00-3-33-----------------------||
D|-3-2-2-2-2-2-2-2----------3-2-22-3-33-----------||
A|--------------------------------------1-11-1-1--||
E|------------------------------------------------||

Composición de Ratos de Porão
Colaboración y revisión:
  • Alberty Leandro
  • leonardo bythors
47 vistas
    • ½ Tono
    • A
    • Bb
    • B
    • C
    • Db
    • D
    • Eb
    • E
    • F
    • F#
    • G
    • Ab
  • Agregar a la lista

    0 comentarios

    Ver todos los comentarios

    ¿Lograste tocar?

    0 Tocaron 0 Aún no

    ¡Graba un video tocando Problemão y envíanoslo!

    00:00 / 00:00
    Outros vídeos desta música
    Repetir Calidad Automático
    Outros vídeos desta música
    00:00 / 00:00
    Automático
    OK