Cifra Club

Sentir Ódio e Nada Mais

Ratos de Porão

Cifrado: Principal (guitarra y guitarra eléctrica)
tono: D
E|---------------------------------------------------------------||
B|---------------------------------------------------------------||
G|-7-------------------------------------------------------------||  4x
D|-7-------------------------------------------------------------||
A|-5-555-555-555-6b-555-555-555-8b-555-555-555-6b----------------||
E|------------------------------------------------7-6-5-7-6-5-7--||
    *** *** ***    *** *** ***    *** *** ***   (      PM     )

E|----------------------------------------------------------||
B|----------------------------------------------------------||
G|-7-------------8-7-8-8-7-8-7-------------8-7-10-10-7-8-7--||
D|-7-------------8-7-8-8-7-8-7-------------8-7-10-10-7-8-7--|| 2x
A|-5-555-555-555-6-5-6-6-5-6-5-555-555-555-6-5-8--8--5-6-5--||
E|----------------------------------------------------------||
    *** *** ***               *** *** ***
E|----------------------------------------||
B|----------------------------------------||
G|-8-7-----------------8-7-------------7--||
D|-8-7-----------------8-7------10-10--7--|| 4x
A|-6-5-5555-8-7--------6-5-5555-8--8---5--||
E|----------6-5-5555----------------------||

E|----------------------------------------------------------||
B|----------------------------------------------------------||
G|-7-------------8-7-8-8-7-8-7-------------8-7-10-10-7-8-7--||
D|-7-------------8-7-8-8-7-8-7-------------8-7-10-10-7-8-7--|| 2x
A|-5-555-555-555-6-5-6-6-5-6-5-555-555-555-6-5-8--8--5-6-5--||
E|----------------------------------------------------------||

E|-----------------------------||
B|-----------------------------||
G|---------8-------10------7---||
D|-7-------8-------10------7-5-|| 6x
A|-7-------6-66666-8-88888-5-5-||
E|-5-55555-------------------3-||

Este é o momento certo da loucura que se esvai
voltar a realidade e vencer sem olhar para traz
A inveja e a falsidade nunca mais te atingirão
todos seus inimigos sua vingança sentirão

E|-----------------------------------------------------------------------||
B|-------------------------------------6---------6b----------------------||
G|-5-7--8-10----------------7------5-7---7--8-10------------------7------|| Tem Momentos que o jão dá uns
D|-5-7--8-10--5------7------7------------7--8-10----5------7------7------||         Pick Slide
A|-3-5--6-8---5------7------5-5555-------5--6-8-----5------7------5-5555-||
E|------------3-3333-5-5555-------------------------3-3333-5-5555--------||
               ****   ****   ****                    ****   ****   ****
E assim sentir... ódio e nada mais
Viver feliz é ilusão e nada mais

E|-----------------------------||
B|-----------------------------||
G|---------8-------10------7---||
D|-7-------8-------10------7-5-|| 6x
A|-7-------6-66666-8-88888-5-5-||
E|-5-55555-------------------3-||

Cercado de canalhas não pode raciocinar
ficar desesperado também não vai adiantar
o ódio lhe domina embrutece o coração
você esta preparado para enfrentar a solidão

E|-----------------------------------------------------------------------||
B|-------------------------------------6---------6b----------------------||
G|-5-7--8-10----------------7------5-7---7--8-10------------------7------|| Tem Momentos que o jão dá uns
D|-5-7--8-10--5------7------7------------7--8-10----5------7------7------||         Pick Slide
A|-3-5--6-8---5------7------5-5555-------5--6-8-----5------7------5-5555-||
E|------------3-3333-5-5555-------------------------3-3333-5-5555--------||
               ****   ****   ****                    ****   ****   ****

E assim sentir... ódio e nada mais
Viver feliz é ilusão e nada mais

E|---------------------------||
B|---------------------------||
G|-7-------8-10-7-------7-5--||
D|-7-------8-10-7-------7-5--|| 4x
A|-5-55555-6-8--5-55555-5-3--||
E|---------------------------||

Composición de João Gordo
Colaboración y revisión:
  • Alberty Leandro
  • ramon paixao
60 vistas
    • ½ Tono
    • A
    • Bb
    • B
    • C
    • Db
    • D
    • Eb
    • E
    • F
    • F#
    • G
    • Ab
  • Agregar a la lista

    0 comentarios

    Ver todos los comentarios

    ¿Lograste tocar?

    1 Tocaron 0 Aún no

    ¡Graba un video tocando Sentir Ódio e Nada Mais y envíanoslo!

    00:00 / 00:00
    Outros vídeos desta música
    Repetir Calidad Automático
    Outros vídeos desta música
    00:00 / 00:00
    Automático
    OK