Cifra Club

Vida Animal

Ratos de Porão

Cifrado: Principal (guitarra y guitarra eléctrica)
tono: F
Intro
e|------------------------|
B|------------------------|
G|------------------------|
D|---7-6-5----7-6-5-------|
A|---5-4-3----5-4-3----..-|
E|000-0-0--000-0-0--000---|

Riff
e|------------------------|
B|------------------------|
G|------------------------|
D|--5-6-7-8--5-6-7-8------|
A|--3-4-5-6--3-4-5-6..----|
E|-0-0-0-0--0-0-0-0-..----|

Sempre E abafado

riff
Se você quer morrer
Se mate na cozinha
e chame sua mãe pra ver
Se você quer matar
Exploda um orfanato
e comece a chorar

A                                 G
Vida animal vida animal vida animal !

Riff
Se você que sorrir
Olhe pros mendigos
Que não tem pra onde ir
Se você quer fuder
Estrupe a vizinha
Até o sangue escorrer

A                                 G
Vida animal vida animal vida animal !

A G# G
Mas você
A
Não vai se arrepender
G
De ter sido anormal
A
Sua mente é psicótica
G
Seu coração é muito mal

Riff
Mas você vai sofrer
Na camisa de força você vai apodrecer
Então você só me diz
Com toda minha maldade Eu ainda sou feliz

Vida Animal !
00:00 / 00:00
Otros videos de esta canción
Repetir
Otros videos de esta canción
Compositor no encontrado.
Colaboración y revisión:
  • leonardo bythors
94 vistas
    • ½ Tono
    • A
    • Bb
    • B
    • C
    • Db
    • D
    • Eb
    • E
    • F
    • F#
    • G
    • Ab
  • Agregar a la lista

    0 comentarios

    Ver todos los comentarios

    ¿Lograste tocar?

    0 Tocaron 0 Aún no

    ¡Graba un video tocando Vida Animal y envíanoslo!

    00:00 / 00:00
    OK