Cifra Club

Abre-te Sésamo

Raul Seixas

Bass tab: Principal
VERSO
G|--------   
D|----7---  
A|--------   
E|-5------

G|-------------    
D|---------7--- (6x) 
A|-5--7--------   
E|------5------

G|-------------    
D|------------- (5x) 
A|-5--7----7---   
E|------0------

G|-------------    
D|---------7--- (3x) 
A|-5--7--------   
E|------5------

G|-------------    
D|------------- (4x) 
A|-5--7----7---   
E|------0------

G|-------------    
D|------------- 
A|---------7---   
E|-5--7-0------

* Última nota Lá ou Mi (7ª Casa) pode ser executada com Pop.

REFRÃO
G|--------------------------------------   
D|-------------------7-9-7--------------
A|--------2-4-5--7-9--------5-4-2-4-2-0~  
E|-2-4-5--------------------------------

REFRÃO (variação possível)
G|--------------------------------------   
D|--------------------------------------
A|--------2-4-5-------------5-4-2-4-2-0~  
E|-2-4-5---------0-2-5-7-5--------------
00:00 / 00:00
Other videos of this song
Repeat
Other videos of this song
Composed by Claudio Roberto / Raul Seixas
Collaboration and Review:
  • Pedro Lima
26 views
00:00 / 00:00
OK