Cifra Club

Aluga-se

Raul Seixas

Cifrado: Principal (guitarra y guitarra eléctrica)
Selo Cifra Club: esta cifra foi revisada para atender aos critérios oficiais da nossa Equipe de Qualidade.
tono: Am
[Intro] F#5  G5  G#5  A5

[Solo]
      
E|-8p7p5------------------------------------|
B|-------8p7p5------------------------------|
G|-------------8p7p5-7-7b8r7p5---5----------|
D|-----------------------------7------------|
A|------------------------------------------|
E|------------------------------------------|

E|-----5-----5------------------------------|
B|-------5-8---8b10-------------------------|
G|-7b8--------------7b8r7p5---5-------------|
D|--------------------------7---------------|
A|------------------------------------------|
E|------------------------------------------|

E|-------------------------------------15---|
B|-------13----15b17r15p13-15-13-15b17------|
G|-12/14----14------------------------------|
D|------------------------------------------|
A|------------------------------------------|
E|------------------------------------------|

E|------------------------------------------|
B|-15b17r15p13-15-15b17---------------------|
G|------------------------------------------|
D|------------------------------------------|
A|------------------------------------------|
E|------------------------------------------|

E|-------22r20-17-15------------------------|
B|-15/17-------------17---------------------|
G|------------------------------------------|
D|------------------------------------------|
A|------------------------------------------|
E|------------------------------------------|

E|-15b17-15b17-17r15------------------------|
B|-------------------13/15~-----------------|
G|------------------------------------------|
D|------------------------------------------|
A|------------------------------------------|
E|------------------------------------------|

[Primeira Parte]

( F#5  G5  G#5  A5 )

A solução pro nosso povo eu vou dar

( F#5  G5  G#5  A5 )

Negócio bom assim ninguém nunca viu

( F#5  G5  G#5  A5 )

Tá tudo pronto aqui é só vir pegar

( F#5  G5  G#5  A5 )

A solução é alugar o Brasil

[Segunda Parte]

G                      C
  Nós não vamos pagar nada
G                      C
  Nós não vamos pagar nada
         F
É tudo free
       C             F
Tá na hora agora é free
         C          Bb
Vamos embora dar lugar
                   F
Pros "gringos" entrar
       Bb                E
Esse imóvel está pra alugar

[Terceira Parte]

( F#5  G5  G#5  A5 )

Os estrangeiros eu sei que eles vão gostar

( F#5  G5  G#5  A5 )

Tem o Atlântico, tem vista pro mar

( F#5  G5  G#5  A5 )

A Amazônia é o jardim do quintal

( F#5  G5  G#5  A5 )

E o dólar dele paga o nosso mingau

[Segunda Parte]

G                      C
  Nós não vamos pagar nada
G                      C
  Nós não vamos pagar nada
         F
É tudo free
       C             F
Tá na hora agora é free
         C          Bb
Vamos embora dar lugar
                   F
Pros "gringos" entrar
       Bb                E
Esse imóvel está pra alugar

[Solo] F#5  G5  G#5  A5
       F#5  G5  G#5  A5
       F#5  G5  G#5  A5
       F#5  G5  G#5  A5

[Segunda Parte]

G                      C
  Nós não vamos pagar nada
G                      C
  Nós não vamos pagar nada
         F
É tudo free
       C             F
Tá na hora agora é free
         C          Bb
Vamos embora dar lugar
                   F
Pros "outros" entrar
            Bb                E  F  F#
Pois esse imóvel está pra alugar

G                      C
  Nós não vamos pagar nada
G                      C
  Nós não vamos pagar nada
          F
Agora é free
       C             F
Tá na hora agora é free
         C          Bb
Vamos embora dar lugar
                   F
Pros "gringos" entrar
            Bb                E  F  F#
Pois esse imóvel está pra alugar

G                      C
  Nós não vamos pagar nada
G                      C
  Nós não vamos pagar nada
Otros videos de esta canción
    432.399 exhibiciones
    • Simplificar cifrado
      • ½ Tono
      • Am
      • Bbm
      • Bm
      • Cm
      • C#m
      • Dm
      • Ebm
      • Em
      • Fm
      • F#m
      • Gm
      • G#m
    • Agregar a la lista

    Afinación de cifrado

    Afinador online

      OK