Cifra Club

Ângela

Raul Seixas

Tab de bajo: Principal
(intro)

    E            D  D#°   A     F#m     B7   E
G|--------------------------------------8--8-7--|
D|----------------------------------------------|
A|--7-7-7-7-7-7--5-5-6--6---4--/9/--------------|
E|------------------------5----------7----------|

(cantado)    
    F#m                             F#m
G|--------------------------------------------------------------------|
D|------------(2)-----(4)-(2)------------------(2)-----(4)-(2)--------| 
A|------(2h4)-----(4)---------(2h4)------(2h4)-----(4)---------(2h4)--|
E|--2-2-----------------------------2-2-------------------------------|

     E          D       D#°    A     F#m  B7   E
G|------------------7------8--------------8--8-7--|
D|------------------------------------------------|
A|--/7-7-7-7-7--5-----5-6----6---4--/9------------|
E|-----------------------------5--------7---------|

    F#m                             F#m
G|--------------------------------------------------------------------|
D|------------(2)-----(4)-(2)------------------(2)-----(4)-(2)--------| 
A|------(2h4)-----(4)---------(2h4)------(2h4)-----(4)---------(2h4)--|
E|--2-2-----------------------------2-2-------------------------------|

     E              D     D#°      A 
G|---------7h9-9-9----7-----8---------------------------------|
D|------------------------------------------------------------|
A|--/7--7-----------5---5-6---(6)----4-7-9----4-7-9----9-7----|
E|---------------------------------5--------5--------9-----9--|

    provar do meu leite agora...
    Em                A
G|---------------------------------------|
D|--------------------------5h7-7-7-7-7--|
A|-----------7-7-5h7--0---0--------------|
E|--0--0-0-0-----------------------------|

    Em               A     A+     Bm        E        C#7
G|------------------------------------------------------|
D|------------------------------------------2-2-2-2-----|
A|------------7--5h7-0--0--0-0-0--2--2-2-2-----------4--|
E|--0--0-0-0--------------------------------------------|

    F#m             F#m                      F#m
G|------------4p2---------------------------------|
D|-------2h4------------------2---2---4-----------|
A|------------------------2h4---4---4---2h4-------|
E|--2-2-------------2-2----------------------2-2--|

     E              D     D#°      A 
G|---------7h9-9-9----7-----8--------------9h11--|
D|-----------------------------------------------|
A|--/7--7-----------5---5-6---(6)----------------|
E|---------------------------------5-------------|

(base solo)
    G           D             G             D
G|-----------------------7------------------------------|
A|-------------------------------------5----------------|
D|--------------5--5-5-5---5----------------5--5-5-5-5--|
E|--3--3-3-3-3----------------3--3-3-3---3--------------|

    F°                A7           D             F#m         C#7
G|------------------------------------------------------------------------------|
A|------------------------------------------------------------------------------|
D|--8--11--/14--/17----------------5---5-5-5-5---------------4-4-4-4-4-4-4-4-4--|
E|--------------------5--5--5-5-5----------------2-2-2-2-2----------------------|

(final)
    F#m                  E            D            A
G|--------------------------------------------------------|
A|--------2h4---------------------------------------------|
D|-----------------------7-7-7-7------5--5--5-5-5---------|
E|--2-2-----------2-2------------------------------5---5--|

h: hanmer-on
P: pull-off
/: slide
b: bend
r: reverse bend
~: vibrato
() :ghost note (improviso)
00:00 / 00:00
Otros videos de esta canción
Repetir
Otros videos de esta canción
Composición de Claudio Roberto / Raul Seixas
Colaboración y revisión:
  • anderson sousa
15 exhibiciones
00:00 / 00:00
OK