Cifra Club

Aprenda

Cowboy Fora da Lei

Raul Seixas

Tab de bajo: Principal
  
       Introdução                 

  E|--------------------------------------------------------|
  B|--------------------------------------------------------|
  G|--------------------------------------------------------|
  D|-----------------7-5---7-----------------5---5----------|
  A|---3---3-5---5/7-----5---5-7-3---3-5---5---5------------|
  E|-----3-----5-------------------3-----5------------------|
  
  E|------------------------|
  B|------------------------|
  G|------------------------|
  D|--------5---5-----------|
  A|----2/5---5-------------|
  E|--------------5-7-8-----|

   Mamãe não quero ser prefeito...
               
  E|----------------------------------------|
  B|----------------------------------------|
  G|----------------------------------------|
  D|--5---5---5-------------5---------------|
  A|----5---5----2---2---2----5-7---5---5---|
  E|---------------2---2----------7---5---5-|
 
   Eu não preciso ler jornais....
  E|----------------------------------------|
  B|----------------------------------------|
  G|----------------------------------------|
  D|--------------5---------------5---5-----|
  A|--3---3-5---5---5-7---3---5-----5---5---|
  E|----3-----5---------7---3---5-----------|

   Papai não quero provar nada....
  E|----------------------------------------|
  B|----------------------------------------|
  G|----------------------------------------|
  D|--5---5---5-------------5---------------|
  A|----5---5----2---2---2----5-7---5---5---|
  E|---------------2---2----------7---5---5-|

   Ó coitado foi tão cedo...
  E|----------------------------------------|
  B|----------------------------------------|
  G|----------------------------------------|
  D|--------------5---------------5---5-----|
  A|--3---3-5---5---5-7---3---5-----5---5---|
  E|----3-----5---------7---3---5-----------|
   
  Refrão

  E|----------------------------------------|
  B|----------------------------------------|
  G|----------------------------------------|
  D|-----------5---------------5---5--------|
  A|---3---5-----5-7---3---5-----5---5------|
  E|-----3---5-------7---3---5--------------|
Composição de Claudio Roberto / Raul Seixas
Colaboración y revision:
  • jeremias araujo
157 reproducciones

0 comentarios

Ver todos os comentários
00:00 / 00:00
outros vídeos desta música
repetir qualidade Automático
Outros vídeos desta música
00:00 / 00:00
Automático
OK