Cifra Club

Let Me Sing, Let Me Sing

Raul Seixas

Cifrado: Principal (guitarra y guitarra eléctrica)
tono: C
[Intro] E A E

E|-------------------------------------------------------------|
B|---------12-12-12-12-12--------12-12-12-12-12----------12----|
G|---12-14-12-12-12-12-12-14-12--12-12-12-12-12----12-14-12----|
D|-14--------------------------14----------------14------------|
A|-------------------------------------------------------------|
E|-------------------------------------------------------------|

E|-------------------------------------------------------------|
B|---------12---------12---------------------------------------|
G|---12-14-12---12-14-14b16~-----------------------------------|
D|-14---------14-----------------------------------------------|
A|-------------------------------------------------------------|
E|-------------------------------------------------------------|

 A7
Uah-bap-lu-bap-lah-bein-bum!

         A
 Let me sing, let me sing
        D
 Let me sing my rock'n'roll
        A
 Let me sing, let me swing
        D                  A
 Let me sing my blues and go, say

         D                     A
Não vim aqui tratar dos seu problemas
         D                 A
O seu messias ainda não chegou
         D                E
Eu vim rever a moça de ipanema
                  D
E vim dizer que o sonho
             A
O sonho terminou
         D                E
Eu vim rever a moça de ipanema
                D
Ei dizer que o sonho
             A
O sonho terminou

      D       A
Tenho 48 quilo certo
 D            A
48 quilo de baião
           D                  E
Num vou cantar como a cigarra canta
              D                      A
Mas desse meu canto eu não lhe abro mão
           D                  E
Num vou cantar como a cigarra canta
              D                      A
Mas desse meu canto eu não lhe abro mão

          D                A
Não quero ser o dono da verdade
          D                   A
Pois a verdade não tem dono, não
            D                     E
Se o "v" de verde é o verde da verdade
                D                     A
Dois e dois são cinco, né mais quatro não
            D                     E
Se o "v" de verde é o verde da verdade
                D                      A
Dois e dois são cinco, né mais quatro não

[Solo] Bb Eb Bb F Eb Bb

         Eb                  Bb
Num vim aqui querendo provar nada
          Eb                 Bb
Num tenho nada pra dizer também
          Eb                  F
Só vim curtir meu rockzinho antigo
              Eb                   Bb
Que não tem perigo de assustar ninguém
          Eb                  F
Só vim curtir meu rockzinho antigo
              Eb                   Bb
Que não tem perigo de assustar ninguém
       Bb
Let me sing, let me sing
       Eb
Let me sing, my rock'n'roll
       Bb
Let me sing, let me swig
       Eb                Bb
Let me sing my blues and go, go!
       Bb
Let me sing, let me sing
       Eb
Let me sing, my rock'n'roll
       Bb
Let me sing, let me swig
       Eb                Bb
Let me sing my blues and go
 Bb
Uah-bap-lu-bap-lah-bein-bum!
00:00 / 00:00
Otros videos de esta canción
Repetir
Otros videos de esta canción
Composición de Nadine Wisner / Raul Seixas
Colaboración y revisión:
  • Allan Bruno
  • Flavio
456 exhibiciones
    • ½ Tono
    • A
    • Bb
    • B
    • C
    • Db
    • D
    • Eb
    • E
    • F
    • F#
    • G
    • Ab
  • Agregar a la lista
    00:00 / 00:00
    OK