Cifra Club

Medo da Chuva

Raul Seixas

Bass tab: Principal
Intro:
g:---------------------------------------------------
d:-------------------------------------------5-3-2-0-
a:----------------------7--------------4-7-5---------
e:----------5-----5-5-----7---5--5-5-5---------------

verso 1
g:-------------------------2-------
d:-----------7-----------4---------
a:--5-------5-7-5-------5---2-1-0~-
e:---------------------------------

g:----------------------------
d:---------------------5------
a:-0-4-7----0----0---7--2-0---
e:--------7-------------------

g:------------------------------
d:------------------------------
a:----0--0-7-------------4-7-5--
e:-----------7-5---5-7-7--------

g:--------------7------7---
d:--------4-5-7-----4---7-5
a:---5x-7------------------
e:-------------------------

g:--------------------
D:--------------------
a:-2-5----------------
E:-----5/3---3-5-3-2--

g:-----------------4/----
d:---------------4-------
a:-------------2-----2-0-
e:--2---2--0-5-----------

g:--------------------------
D:----2---------------------
a:--2---4-2-0----0-2.2-4-7-5
e:--------------------------

g:---------------------------
d:--------4-5-7---4-5-7------
a:-5------------5---------------
e:-----------------------5/3----


Refrão:

g:------------------------------------------------------------------
d:------------7--9-7---------------4-5-7----4-2-------4-5-7---7.6---
a:----5--------------4-7-5-----5-5--------------5---5---------------
e:--3--5-3----------------------------------------------------------

g:-----------------------------------------------------------
d:------------------------------------4-2------4-5-7--7.6----  2x
a:---------5-------------2.0---5----5-----5--5---------------
e:--3----3---5-3----3x-3-----3-------------------------------

g:--------------------------------------------------
d:-------------------------------4-5-7-------4-5-7--
a:-0-----4-7----------4-7-5----5-------5---5--------
e:----------7-5--5x-5-------------------------------

verso 2
g:-------------------------2-------
d:-----------7-----------4---------
a:--5-------5-7-5-------5---2-1-0~-
e:---------------------------------

g:----------------------------
d:---------------------5------
a:-0-4-7----0----0---7--2-0---
e:--------7-------------------

g:------------------------------
d:------------------------------
a:----0--0-7-------------4-7-5--
e:-----------7-5---5-7-7--------

g:--------------7------7---
d:--------4-5-7-----4---7-5
a:---5x-7------------------
e:-------------------------

g:--------------------
D:--------------------
a:-2-5----------------
E:-----5/3---3-5-3-2--

g:-----------------4/----
d:---------------4-------
a:-------------2-----2-0-
e:--2---2--0-5-----------

g:--------------------------
D:----2---------------------
a:--2---4-2-0----0-2.2-4-7-5
e:--------------------------

g:---------------------------
d:--------4-5-7---4-5-7------
a:-5------------5---------------
e:-----------------------5/3----


Refrão:

g:------------------------------------------------------------------
d:------------7--9-7---------------4-5-7----4-2-------4-5-7---7.6---
a:----5--------------4-7-5-----5-5--------------5---5---------------
e:--3--5-3----------------------------------------------------------

g:-----------------------------------------------------------
d:------------------------------------4-2------4-5-7--7.6----  2x
a:---------5-------------2.0---5----5-----5--5---------------
e:--3----3---5-3----3x-3-----3-------------------------------

g:-----------------------------------------------------------
D:---------------------------------4-5-7-------4-5-7---------
a:------4-7----------4-5---7-5---5-------5---5-------5-4--2--
e:-5--5------7-5---5-----------------------------------------

g:--------------------------------------------------
d:-------------------------------4-5-7-------4-5-7--
a:-0-----4-7----------4-7-5----5-------5---5--------
e:----------7-5--5x-5-------------------------------



final

g:--------------------------------------------------------------------
d:--------------------------------------------------------------------
a:-----------------------------------------------------5--------5-----
e:---5---------------------5-----------------3----------------5---5-5-
                       (soa essa
                      nota quando 
                    canta a palavra
                       "sozinhas")


Essa tablatura está completa com todas as escalas feitas na música, tokando tudo que tem ai fica
igualzinho a música. Mas é preciso ouvir muito a música para pegar bem porque tem coisas que são
bem rapidas.
Mauricio Schmitz..Baixista da Banda Blecaute ...Indaial - SC.
00:00 / 00:00
Other videos of this song
Repeat
Other videos of this song
Composed by Paulo Coelho / Raul Seixas
Collaboration and Review:
  • Mauricio Schmitz
76 views
00:00 / 00:00
OK