Cifra Club

Nanny

Raul Seixas

Cifrado: Principal (guitarra y guitarra eléctrica)
tono: Db
[Intro]  

Db                         Gb                      Ab                                      
nanny! iêh, iêh, iêh, iêh, nanny! uôh, ôh, ôh, ôh, nanny! 
                       Db  Ab                      
você não foi me encontrar! ah... feia
Db                         Gb                      Ab                                      
nanny! iêh, iêh, iêh, iêh, nanny! uôh, ôh, ôh, ôh, nanny!
                   Db Db7                
acho que vamos brigar!
        Gb                 
eu esperei por você a tarde inteira
              Db                       Db7
fiquei no jardim da pracinha na ribeira
       Gb
mas, você não apareceu lá
                D#                   Ab                               
por favor meu amor, vá dizendo o que há
Db                         Gb                      Ab                                      
nanny! iêh, iêh, iêh, iêh, nanny! uôh, ôh, ôh, ôh, nanny! 
                   Db              
acho que vamos brigar!


[Tab - Solo] 

E|-----------9-12-9-12-9-12-9-12-9-12-9---------------------|
B|--9--9/11-----------------------------11-9-11b12r11-9~----|
G|----------------------------------------------------------|
D|----------------------------------------------------------|
A|----------------------------------------------------------|
E|----------------------------------------------------------|

E|---------------------9-11-12--9-12-9----9----9------------|
B|--9/11-9--11-12-11-9-----------------11---11--------------|
G|----------------------------------------------------------|
D|----------------------------------------------------------|
A|----------------------------------------------------------|
E|----------------------------------------------------------|

E|--11-11-11-11-11-11-8~------------------------------------|
B|----------------------------------------------------------|
G|----------------------------------------------------------|
D|----------------------------------------------------------|
A|----------------------------------------------------------|
E|----------------------------------------------------------|

 Db                        Gb                      Ab                                      
nanny! iêh, iêh, iêh, iêh, nanny! uôh, ôh, ôh, ôh, nanny! 
                       Db  Ab                      
você não foi me encontrar! ah... feia
Db                         Gb                      Ab                                      
nanny! iêh, iêh, iêh, iêh, nanny! uôh, ôh, ôh, ôh, nanny!
                   Db Db7                
acho que vamos brigar!
        Gb                 
eu esperei por você a tarde inteira
              Db                       Db7
fiquei no jardim da pracinha na ribeira
      Gb
mas, você não apareceu lá
               D#                    Ab                               
por favor meu amor, vá dizendo o que há
Db                         Gb                      Ab                                      
nanny! iêh, iêh, iêh, iêh, nanny! uôh, ôh, ôh, ôh, nanny! 
                       Db  Ab                      
você não foi me encontrar! ah... feia
Db                         Gb                      Ab                                      
nanny! iêh, iêh, iêh, iêh, nanny! uôh, ôh, ôh, ôh, nanny!
                       Db                     
você não foi me encontrar!
                     Gb
iêh, iêh, iêh, iêh, nanny!
 Ab                Db
acho que vamos brigar!
Db7               Gb
uôh, ôh, ôh, ôh, nanny!
 Ab               Db  Gb Db
acho que vamos brigar!
 Db
feia...
00:00 / 00:00
Otros videos de esta canción
Repetir
Otros videos de esta canción
Composición de Gino Frey
Colaboración y revisión:
70 exhibiciones
    • ½ Tono
    • A
    • Bb
    • B
    • C
    • Db
    • D
    • Eb
    • E
    • F
    • F#
    • G
    • Ab
  • Agregar a la lista
    00:00 / 00:00
    OK