Cifra Club

Por Quem Os Sinos Dobram

Raul Seixas

Cifrado: Principal (guitarra y guitarra eléctrica)
tono: A
[Intro] A  F#m  E  Bm  C#m

[Primeira Parte] 

 F#m                E
Nunca se vence uma guerra
           D
Lutando sozinho
      Bm
"Cê" sabe que a gente precisa
              F#m
Entrar em contato
     E
Com toda essa força contida
              A
Que vive guardada
  B
O eco de suas palavras
          E
Não repercute em nada
   F#m
É sempre mais fácil
E                      D
Achar que a culpa é do outro
  Bm
Evita o aperto de mão
               F#m
De um possível aliado
    E
Convence as paredes do quarto
             A
E dorme tranqüilo
   B
Sabendo que no fundo do peito
             E
Que não era nada daquilo
   D
Coragem, coragem
      D#º
Se o que você quer
     A                F#m
É aquilo que pensa e faz
   Bm
Coragem, coragem
    E                 A    A7
Eu sei que você pode mais
   D
Coragem, coragem
      D#º
Se o que  você quer
     A                F#m
É aquilo que pensa e faz
   Bm
Coragem, coragem
        E
Que eu sei que você pode
 A
Mais

( G#m C#7 )

[Solo] F#m  E  D  Bm
       F#m  E  A  B  E 

E|-------------------------------------------------------------------------------|
B|---12b-12b-p10--12-12--10-10--9-9h10-------------------------------------------|
G|-------------------------------------9/11-9--9-9h11----------------------------|
D|----------------------------------------------------9h11p9\7~------------------|
A|-------------------------------------------------------------------------------|
E|-------------------------------------------------------------------------------|

E|------------------------------12-14-17---19b--17-------------------------------|
B|----------------10-----12-14-----------------------19-19~----------------------|
G|----------9--11----------------------------------------------------------------|
D|--7--9/11----------------------------------------------------------------------|
A|-------------------------------------------------------------------------------|
E|-------------------------------------------------------------------------------|

E|---12b-12b-p9-------12b--------------------------------------------------------|
B|-------------12b-12~-----12(1/2)b-10----10~------------------------------------|
G|-------------------------------------11------9h11-9----------------------------|
D|----------------------------------------------------9h11p9\7~------------------|
A|-------------------------------------------------------------------------------|
E|-------------------------------------------------------------------------------|

E|-------------------------------------------------------------------------------|
B|---------12--10--9--7--5---2/4\2---2-------------------------------------------|
G|-------------------------------------------------------------------------------|
D|---11/13-13--11--9--7--6---2/4\2-----------------------------------------------|
A|-------------------------------------------------------------------------------|
E|---------------------------------------0---------------------------------------|

E|-------------------------------------------------------------------------------|
B|-------------------12b-12b-10-12b~~--------------------------------------------|
G|-------------9~----------------------------------------------------------------|
D|-------9-11--------------------------------------------------------------------|
A|---7h9-------------------------------------------------------------------------|
E|-------------------------------------------------------------------------------|

[Segunda Parte] 

   F#m
É sempre mais fácil
  E                    D
Achar que a culpa é do outro
  Bm
Evita o aperto de mão
                 F#m
De um possível aliado
    E
Convence as paredes do quarto
             A
E dorme tranqüilo
   B
Sabendo que no fundo do peito
             E
Que não era nada daquilo
   D
( Coragem, coragem )
      D#º
Se o que  você quer
    A                 F#m
É aquilo que pensa e faz
   Bm
Coragem, coragem
        E                 A7  
Que eu sei que você pode mais 

( A7/5+  Bm7/-5   (E7 A) )
00:00 / 00:00
Otros videos de esta canción
Repetir
Otros videos de esta canción
Composición de Raul Seixas
Colaboración y revisión:
1.842 exhibiciones
    • ½ Tono
    • A
    • Bb
    • B
    • C
    • Db
    • D
    • Eb
    • E
    • F
    • F#
    • G
    • Ab
  • Agregar a la lista
    00:00 / 00:00
    OK