Cifra Club

Quando Acabar o Maluco Sou Eu

Raul Seixas

Tab de bajo: Principal
INTRODUÇÃO:
             6x
G|----------------------------------------------
D|----------------------------------------------
A|-5--5-3-5--5-3-5--5-3-5-----------------------
E|----------------------------------------------
             1x
G|----------------------------------------------
D|----------------------------------------------
A|---5--5-3-5--3-5-5----------------------------
E|-------------------10\------------------------

VERSOS
G|----------------------------------------------
D|----------------------------------------------
A|-7--77-77----7-7-5-5-5--5-5--5-5-5-5--5-5-----
E|----------0-0-0-------------------------------

G|----------------------------------------------
D|----------------------------------------------
A|-5h7------------------------------------------
E|-----5-5-5--5-5--5-5--5--5-5---5---5----------

G|----------------------------------------------
D|--------4-5-7-7-5-4---------4-5-7-7-5-4-------
A|-----4-7-----------7-----4-7-----------7------
E|--5-5---------------0-5-5---------------0-----

G|----------------------------------------------
D|----------------------------------------------
A|-5-5---2--5-5-3-2--2-2-5---2--5-5-3-2-1-------
E|----2-5--5-------5------2-5--5----------------

REFRÃO
G|----------------------------------------------
D|----------------------------------------------
A|------------------------7--7-7----------------
E|-5--5--5-5--0-2--2--2-2--------5--5--5-5--0-2-

G|----------------------------------------------
D|----------------------------------------------
A|--------7--7-7--------------------------------
E|-2--2-2---------5--5--5-5--0-5--5--5-5--0-----


OOOO... Russo que guardava o botão da bomba H (...)
G|----------------------------------------------
D|--------4-5-7-7-5-4---------4-5-7-7-5-4-------
A|-----4-7-----------7-----4-7-----------7------
E|--5-5---------------0-5-5---------------0-----

G|----------------------------------------------
D|----------------------------------------------
A|-5-5---2--5-5-3-2--2-2-5---2--5-5-3-2-1-------
E|----2-5--5-------5------2-5--5----------------

REFRÃO (2)
G|----------------------------------------------
D|----------------------------------------------
A|------------------------7--7-7----------------
E|-5--5--5-5--0-2--2--2-2--------5--5--5-5--0-2-

G|----------------------------------------------
D|----------------------------------------------
A|--------7-7--------------------0-0-2-2-3-3-4-4
E|-2--2-2-----0--0-5--5--5-5-5--5---------------

Eu Sou louco mais sou feliz (...)

G|----------------------------------------------
D|----------------------------------------------
A|-5-5-3-2--2-5-5-----2---5-5-3-2--2-5-5----2---
E|---------5------2-5---5---------5------2-5--5-

G|----------------------------------------------
D|----------------------------------------------
A|-5-5-3-2--2-5-5-----5\2-2-2-2-2-2-2/----------
E|---------5------2-5---------------------------

(Em feira de Santana ou mesmo em Paris...)
G|----------------------------------------------
D|----------------------------------------------
A|-7-7-7-7-7-7-7-7-7--7-5-----------------------
E|------------------------7-6-5-3-0-------------

Não burlo com governo nem policia nem censura(...)
G|----------------------------------------------
D|--------4-5-7-7-5-4---------4-5-7-7-5-4-------
A|-----4-7-----------7-----4-7-----------7------
E|--5-5---------------0-5-5---------------0-----

G|----------------------------------------------
D|----------------------------------------------
A|-5-5---2--5-5-3-2--2-2-5---2--5-5-3-2-1-------
E|----2-5--5-------5------2-5--5----------------

REFRÃO
G|----------------------------------------------
D|----------------------------------------------
A|------------------------7--7-7----------------
E|-5--5--5-5--0-2--2--2-2--------5--5--5-5--0-2-

G|----------------------------------------------
D|----------------------------------------------
A|--------7--7-7--------------------------------
E|-2--2-2---------5--5--5-5--0-5--5--5-5--0-----


BASE DO SOLO
G|----------------------------------------------
D|--------4-5-7-7-5-4---------4-5-7-7-5-4-------
A|-----4-7-----------7-----4-7-----------7------
E|--5-5---------------0-5-5---------------0-----

G|----------------------------------------------
D|----------------------------------------------
A|------------------------7--7-7-7--------------
E|-5--5--5-5--0-2--2--2-2---------5--5--5-5--5--

G|----------------------------------------------
D|--------4-5-7-7-5-4---------4-5-7-7-5-4-------
A|-----4-7-----------7-----4-7-----------7------
E|--5-5---------------0-5-5---------------0-----

G|------------------
D|------------------
A|-0-0-2-2-3-3-4-4--
E|------------------
00:00 / 00:00
Otros videos de esta canción
Repetir
Otros videos de esta canción
Composición de Raul Seixas
Colaboración y revisión:
  • Antonio Alves
42 exhibiciones
00:00 / 00:00
OK