Cifra Club

Sociedade Alternativa

Raul Seixas

Tab de bajo: Principal
G|--------------|
D|--------------|            
A|-----33-55----| (4x)
E|55----------55|

"Se eu quero..."
G|-----------------------------------------------|
D|-----------------------------------------------|            
A|3-33-------3-33-------3-33--------3-33--------3|        
E|------3-33-------3-33-------3-33--------3-33---|          

"Tudo da lei, da lei..."
G|------------|
D|5-2---------|            
A|-----5-3~3-2|                    
E|------------|

(repete tudo)
00:00 / 00:00
Otros videos de esta canción
Repetir
Otros videos de esta canción
Composición de Paulo Coelho / Raul Seixas
Colaboración y revisión:
  • Renato Maisano
58 exhibiciones
00:00 / 00:00
OK