Cifra Club

S.O.S

Raul Seixas

Cifrado: Principal (guitarra y guitarra eléctrica)
tono: G
[Intro] G  A  C  G  D

E|--------------------------------------|
B|-/8-8--10b12-10-8------10b12-10-8-----|
G|------------------9-9-------------9-9-|
D|--------------------------------------|
A|--------------------------------------|
E|--------------------------------------|

E|--------------------------------------|
B|-10b12-10-8-8-------------------------|
G|--------------7h9-7~------------------|
D|--------------------------------------|
A|--------------------------------------|
E|--------------------------------------|

[Primeira Parte]

G
  Hoje é domingo
          A
Missa e praia

Céu de anil
     C
Tem sangue no jornal
    D              
Bandeiras na Avenida Zil
G
  Lá por detrás
           A
Da triste linda Zona Sul
     C
Vai tudo muito bem
    D
Formigas que trafegam
         G
Sem porque
                     A
E da janela desses quartos
          C
De pensão eu como vetor
      D
Tranquilo eu tento
              G   G7
Uma transmutação

[Refrão]

                 C
Oh! Oh! Oh! Seu moço!
    D        Bm
Do disco voador
    Em         C
Me leve com você
    D          G  G7
Pra onde você for
                 C
Oh! Oh! Oh! Seu moço!
     D              Bm
Mas não me deixe aqui
    Em               C
Enquanto eu sei que tem
          D        G
Tanta estrela por aí

[Solo] G  A  C  G  D

E|--------------------------------------|
B|-/8-8--10b12-10-8------10b12-10-8-----|
G|------------------9-9-------------9-9-|
D|--------------------------------------|
A|--------------------------------------|
E|--------------------------------------|

E|--------------------------------------|
B|-10b12-10-8-8-------------------------|
G|--------------7h9-7~------------------|
D|--------------------------------------|
A|--------------------------------------|
E|--------------------------------------|
[Segunda Parte]

G
  Andei  rezando
      A
Para Tótens e Jesus
   C
Jamais olhei pro céu
     D             
Meu disco voador além
G
  Já fui macaco
      A
Em domingos glaciais
   C
Atlântas colossais
    D
Que eu não soube
           G
Como utilizar

E nas mensagens
          A
Que nos chegam sem parar
     C
Ninguém pode notar
   D
Estão muito ocupados
        G    G7
Pra pensar

[Refrão]

                 C
Oh! Oh! Oh! Seu moço!
    D        Bm
Do disco voador
    Em         C
Me leve com você
    D          G  G7
Pra onde você for
                 C
Oh! Oh! Oh! Seu moço!
     D              Bm
Mas não me deixe aqui
    Em               C
Enquanto eu sei que tem
          D        G
Tanta estrela por aí

     Em                C
Enquanto eu sei que tem
          D        G
Tanta estrela por ai
      Em               C
Enquanto eu sei que tem
          D         
Tanta estrela por aí

[Final] G  A  C  G
00:00 / 00:00
Otros videos de esta canción
Repetir
Otros videos de esta canción
Composición de Raul Seixas
6.388 exhibiciones
    • ½ Tono
    • A
    • Bb
    • B
    • C
    • Db
    • D
    • Eb
    • E
    • F
    • F#
    • G
    • Ab
  • Agregar a la lista
    00:00 / 00:00
    OK