Cifra Club

El Hilito

Rawayana

Cifrado: Principal (guitarra y guitarra eléctrica)
tono: Bm
Bm - G - A

Intro:

1era guitarra:
E|--------------------|
B|------3-------------|
G|------------4-------| (esta guitarra se queda asi)
D|---------4----------|
A|----2---------------|
E|--------------------|

2da guitarra
E|--------7---------------------|
B|--------7---------------------|
G|--------7----------------9h9-7|
D|------------------------------|
A|------------------------------|
E|------------------------------|

Bm (ritmo reggae)

Bm - G - Bm - A X2

Bm - Bm - Bm - G - A X4

Bm - G - A X2(ritmo ska)

    Bm
que rico se te ve el hilito cuando estas en la clase de mate dos
    Bm                              G - A
que rico se te ve el hilito cuando
    Bm
que rico se te ve el hilito cuando estas en la clase de mate dos
    Bm                              G - A
que rico se te ve el hilito cuando
Composición de Balberto Montenegro
    • ½ Tono
    • Am
    • Bbm
    • Bm
    • Cm
    • C#m
    • Dm
    • Ebm
    • Em
    • Fm
    • F#m
    • Gm
    • G#m
  • Agregar a la lista

    0 comentarios

    Ver todos los comentarios

    ¿Lograste tocar?

    0 Tocaron 0 Aún no

    ¡Graba un video tocando El Hilito y envíanoslo!

    Relacionados

    00:00 / 00:00
    Otros videos de esta canción
    Repetir Calidad Automático
    Otros videos de esta canción
    00:00 / 00:00
    Automático
    OK