Cifra Club

Mess Around

Ray Charles

Tab de bajo: Principal
Tabbed By :Dude
e-mail: *

Tuning:EADGBE

Intro:
G|--8--6--5------------------|
D|-----------8--4-5-4-5------| x4
A|---------------------------|
E|---------------------------|

G|-----5--8--10--11--10--8--5-----------5--8--5----------7--10--7----------|
D|--6-----------------------------5--8----------8--5--8------------8--6--5-|
A|-----------------------------6-------------------------------------------|
E|-------------------------------------------------------------------------|

G|--------------5--8--5--------|
D|--------5--8-----------8--5--|
A|--8--6-----------------------|
E|-----------------------------|

Verse/Refrain 
G|-----------5--8--5-----------------5--8--5-----------5--8--10--11--10--8-|
D|-----5--8-----------8--5-----5--8-----------8--5--6----------------------|
A|--6-----------------------6----------------------------------------------|
E|-------------------------------------------------------------------------|

G|--5-----------5--8--5-----------7--10--7-----------------------5--8--5---|
D|--------5--8-----------8--5--8------------8--6--5--------5--8------------|
A|-----6---------------------------------------------8--6------------------|
E|-------------------------------------------------------------------------|

G|--------|  This whole thing is repeated throughout the entire song and is 
D|--8--5--|  played as a walking bass line.  have fun, its a really fun song
A|--------|  to play.
E|--------|

| /  slide up
| \  slide down
| h  hammer-on
| p  pull-off
| ~  vibrato
| +  harmonic
| x  Mute note
============================================================================
00:00 / 00:00
Otros videos de esta canción
Repetir
Otros videos de esta canción
Composición de Ahmet Ertegun
87 vistas

0 comentarios

Ver todos los comentarios

¿Lograste tocar?

0 Tocaron 0 Aún no

¡Graba un video tocando Mess Around y envíanoslo!

00:00 / 00:00
OK