Cifra Club

Fique em Silêncio

RBD

Tablatura: Principal
reproducciones 92
Tono: G
Intro: G  Em  C  D  (Durante o Solo)

E|-----------------------------------------------------------|
A|-----------------------------------------------------------|
D|-----------------------------------------------------------| 2x
G|-----------------------------------------------------------|
B|--0-3-0---0-3p0--0-3-0---0-3-1---1--1---1------7-5-3-3-1---|
E|--------3--------------3----------0---3---3/7-5------------|

G
Te encontro sem presa
B7
Dizendo o que senti
Em                    A
Com uma lágrima no olhar

G
Me abraça primeiro
B7
Me pede um beijo
Em                         A
E eu não consigo nem respirar
Am7                B7
Só espere um momento
Em                 D
Não me diz que não é certo

Refrão:

        G
  Então fique em silêncio       
      Em
  Cinco minutos                 
    C
  Eu preciso desse tempo        
    D
  Vem junto a mim               
                                
        G
  Te darei o último beijo       
       Em
  O mais profundo               
        C
  Guardarei meus sentimentos    
        D       G
  E aí será o fim               

(Solo)

G
Tenho tanto medo
B7
É que não entendo 
Em
Que foi que eu fiz 
        A
Que te fez tão mal...

G
Me abraça primeiro
B7
Me pede um beijo
Em                     A
E eu não consigo nem respirar
Am7                    B7
Só espere um momento
Em                      D
Não me diz que não é certo

Refrão:

        G
  Então fique em silêncio       
      Em
  Cinco minutos                 
    C
  Eu preciso desse tempo        
    D
  Vem junto a mim               
                                
        G
  Te darei o último beijo       
       Em
  O mais profundo               
        C
  Guardarei meus sentimentos    
        D         G  E
  E aí será o fim               

Riff:

E|-------------------------------|
A|-------------------------------|
D|-------------------------------|
G|-------------------------------|
B|--0-3-0---0-3p0--0-3-0---0-3-1~|
E|--------3--------------3-------|

             Am                 B7
Muda esses planos, e troca de lado 
            Em
Diz que me ama 
              A
Que não é culpado 
      C
Pelo menos um momento 
       D
Diz que isso não é certo

Refrão:

        G
  Então fique em silêncio       
      Em
  Cinco minutos                 
    C
  Eu preciso desse tempo        
    D
  Vem junto a mim               
                                
        G
  Te darei o último beijo       
       Em
  O mais profundo               
        C
  Guardarei meus sentimentos    
        D
  E aí será o fim               

Final:

E|---------------------|
A|---------------------|
D|---------------------|
G|-------------------0-| Repete e vai baixando
B|--0-1-0---0-0h1p0----|
E|--------3------------|
Acordes para:

    0 comentarios

      mostrar más comentarios

      ¿Conseguiste tocar?

      11tocaron0aún no

      ¡Graba un vídeo tocando Fique em Silêncio y envianoslo!

      00:00 / 00:00
      outros vídeos desta música
      repetirqualidadeautomática
      Outro vídeos desta música
        00:00 / 00:00
        automática
        OK