Cifra Club

Sometimes

Reach The Sky

Cifrado: Principal (guitarra y guitarra eléctrica)
Já pensou em usar uma coleção de roupas do Cifra Club? Responda as perguntas abaixo e nos ajude nessa missão! →
tono: F#
Sometimes(Britney Spears)

~ - deixar o som correndo
4x - travar instrumento depois 
2x  
Intro: 
e|---------------------------------------------------------------------------| 
B|------3-4-6----------3-4----------3-4-3------------------------------------| 
G|3~--5-------5~---3-5-----3~---3-5-------5-3-2-3~---------------------------| 
D|---------------------------------------------------------------------------| 
A|---------------------------------------------------------------------------| 
E|---------------------------------------------------------------------------| 

Verso:(2x) 
e|-------------------------------------| 
B|-------------------------------------| 
G|3---3---5----------------------------| 
D|3---3---5---3------------------------| 
A|1---0---3---3------------------------| 
E|------------1------------------------| 

Verso continuação: 
e|------------------------------------| 
B|------------------------------------| 
G|5-------3---3-------5---3---5-------| 
D|5---3---3---3---5---5---3---5---3---| 
A|3---3---1---0---5---3---1---3---3---| 
E|----1-----------3---------------1---| 

Refrão:(2x) 
e|-----------------| 
B|-----------------| 
G|3---3---5--------| 
D|3---3---5---3----| 
A|1---0---3---3----| 
E|------------1----| 

Repetir verso: 

Repetir refrão:(2x) 

Bridge: 
e|---------------------------| 
B|---------------------------| 
G|8---8-------8---10---------| 
D|8---8---5---8---10---8~----| 
A|6---5---5---6----8---8~----| 
E|--------3------------6~----| 

Repetir intro: 



Último refrão:(4x) 
e|---------------------------------------------------------| 
B|---------------------------------------------------------| 
G|4---4---6------------------------------------------------| 
D|4---4---6---4--------------------------------------------| 
A|2---1---4---4--------------------------------------------| 
E|------------2--------------------------------------------| 

Fim: 
e|------------| 
B|------------| 
G|4~-----4x---| 
D|4~-----4x---| 
A|2~-----2x---| 
E|------------| 
Composición de Britney Spears
12 vistas
    • ½ Tono
    • A
    • Bb
    • B
    • C
    • Db
    • D
    • Eb
    • E
    • F
    • F#
    • G
    • Ab
  • Agregar a la lista

    0 comentarios

    Ver todos los comentarios

    ¿Lograste tocar?

    0 Tocaron 0 Aún no

    ¡Graba un video tocando Sometimes y envíanoslo!

    00:00 / 00:00
    Outros vídeos desta música
    Repetir Calidad Automático
    Outros vídeos desta música
    00:00 / 00:00
    Automático
    OK