Cifra Club

Black Summer

Red Hot Chili Peppers

Cifrado: Principal (guitarra y guitarra eléctrica)
tono: Ebm (con acordes en la forma de Em) Afinación: Eb Ab Db Gb Bb Eb
[Intro] Em

[Tab - Intro]

   Em
E|------------------------------------------|
B|---------8-------8h10p8-----8------8------|
G|---------9-------7----------7h9p7--7h9----|
D|-----9---9---9-9-9------9-9-9------9------|
A|-----7---7---7-7--------7-7--------7------|
E|-0---0------------------------------------|

E|------------------------------------------|
B|---------8-------8/10\8-------8/10\8---8--|
G|---------9-----9-9/11\9---9---9/11\9---9--|
D|-----9---9-----9----------9------------9--|
A|-----7---7----------------7------------7--|
E|-0---0--------------------0---------------|

[Primeira Parte] 

   Em          G
A lazy rain am I
      D           A   Em
The skies refuse to cry
    Am               Em            D/F#  G  D
Cremation takes its piece of your su__pply

     Em                    G
The night is dressed like noon
   D       A        Em
A sailor spoke too soon
      Am            Em            D/F#  G   D
And China's on the dark side of the    Moon

E|-10-----10--------------------------------|
B|-10h12--10--10-----10--8----8-------------|
G|-------------9h11---9--7h9--7-------------|
D|-------------------------------9\---------|
A|------------------------------------------|
E|------------------------------------------|

[Passagem] C  G  D  E
           G  A  E

   C       G       D         E
E|------------------------------------------|
B|-5-------------------------------9--------|
G|-5---------------7h9-7-----9-----9--------|
D|-5-----5-5-------------7h9-9-----9--------|
A|-3--/7---5-----5-----------7---7-7--------|
E|---------3--/7----------------------------|

   G                A         
E|------------------------------------------|
B|------------------------------------------|
G|------12-12h14-12-----14----14h16p14------|
D|------12-12--------------14-14------------|
A|-/14--------------/16----------------16\--|
E|------------------------------------------|

   E
E|------------------------------------------|
B|----------9-------------------------------|
G|----9-----9-------------------------------|
D|----9--x--9-------------------------------|
A|-7--7--x--7-------------------------------|
E|-0-----x----------------------------------|

[Segunda Parte] 

  Em            G
Platypus are a few
     D          A   Em
The secret life of roo
   Am       Em     D/F#  G  D
A personality I never  knew

     Em             G
My crater weighs a ton
    D        A       Em
The archer's on the run
     Am             Em           D/F#  G  E
And no one stands alone behind the    Sun

[Refrão] 

      C           G            D           E
It's been a long time since I made a new friend
 G           A            E 
Waiting on another black summer to end
      C           G            D           E
It's been a long time and you never know when
 D           A            E
Waiting on another black summer to end

[Solo] Em  G  D  A  Em
       Am  Em  D/F#  G  D
       Em  G  D  A  Em
       Am  Em  D/F#  G  E

[Parte 1 De 3] 

E|-----------------------------------------------------|
B|-----------------------------------------------------|
G|---------------------/9------------------------------|
D|-------------5--7/9------/9~----9~----9--8--7----7\5-|
A|-/7----7--7------------------------------------------|
E|-----------------------------------------------------|

E|-----------------------------------------------------|
B|-7b8r7---5-------------------------------------------|
G|--------------------7--9-----------------------------|
D|------------7/9~----------\7p5-----------------------|
A|--------------------------------7--7-----------------|
E|-----------------------------------------------------|

E|-----------------------------------------------------|
B|--------------------5--------------------------------|
G|---------------7-------------------------------------|
D|-7----5--7b--------------b8r7p5-----------4----5-----|
A|--------------------------------7----7---------------|
E|-----------------------------------------------------|

E|--------------------------------------10-------------|
B|----------------------------------10-----------------|
G|-----------------------------/11---------------------|
D|-5-5---5--7b9r----7----7--7--------------------------|
A|-----------------------------------------------------|
E|-----------------------------------------------------|

[Parte 2 De 3] 

E|-----------------------------------------------------|
B|-----------------------------------------------------|
G|----------------12--14--12--14b16--------------------|
D|-/14~-------14---------------------------------------|
A|-----------------------------------------------------|
E|-----------------------------------------------------|

E|-15-------------------------14b15r14--12-------------|
B|-------15--------------------------------------------|
G|----------b16r14----14--12----------------14b16------|
D|-----------------------------------------------------|
A|-----------------------------------------------------|
E|-----------------------------------------------------|

E|-12--------------------------------------------------|
B|-----------------------------------------------------|
G|-----b16r14p12---------------------------------------|
D|---------------14--14--------------------------------|
A|-----------------------------------------------------|
E|-----------------------------------------------------|

E|------------------------12---------------------------|
B|-------------------15--------------------------------|
G|-14---12--14b16------------b16r14p13----------11-----|
D|--------------------------------------14--14---------|
A|-----------------------------------------------------|
E|-----------------------------------------------------|

[Parte 3 De 3] 

E|----------------------------------------15-----------|
B|------------------12------12-15------15---------15---|
G|-12--12-12-12--12------12---------12---------12------|
D|-----------------------------------------------------|
A|-----------------------------------------------------|
E|-----------------------------------------------------|

E|-----------------------------12------12-16b18\-------|
B|------------------12------12------12-----------------|
G|-13--13-13-13--13------13----------------------------|
D|-----------------------------------------------------|
A|-----------------------------------------------------|
E|-----------------------------------------------------|

[Terceira Parte] 

 Em                G
Back the flaming whip
     D                 A   Em
Are sailing on our censorship
 Am                   Em             D/F#  G  D
Riding on a headless horse to make the   trip

[Refrão] 

      C           G            D           E
It's been a long time since I made a new friend
 G           A            E 
Waiting on another black summer to end
      C           G            D           E
It's been a long time and you never know when
 D           A            E
Waiting on another black summer to end

[Final] 

( Em  G  D  Em )

   Em              G  
E|------------------------------------------|
B|------------------------------------------|
G|---9-----9-----9---7-----7-----7----------|
D|-9---9-9---9-9---9---9-9---9-9------------|
A|------------------------------------------|
E|------------------------------------------|

   D               Em
E|------------------------------------------|
B|------------------------------------------|
G|---7-----7---7-9---9-----9-----9----------|
D|-7---7-7---7-----9---9-9---9-9------------|
A|------------------------------------------|
E|------------------------------------------|

   Am              Em
E|------------------------------------------|
B|------------------------------------------|
G|---9-----9---7-9---9-----9---9-x----------|
D|-7---7-7---7-----9---9-9---9--------------|
A|------------------------------------------|
E|------------------------------------------|

   D
E|-10-10-10-10-10-10-10-10------------------|
B|-10-10-10-10-10-10-10-10------------------|
G|------------------------------------------|
D|------------------------------------------|
A|------------------------------------------|
E|------------------------------------------|

   A
E|--9--9--9--9--9--9--9--7------------------|
B|-10-10-10-10-10-10-10---------------------|
G|------------------------------------------|
D|------------------------------------------|
A|------------------------------------------|
E|------------------------------------------|

           Am
I've been waiting
           Em
I've been waiting
 D                        A
Waiting on another black summer to end

   Em              G
E|------------------------------------------|
B|------------------------------------------|
G|---9-----9-----9---7-----7-----7----------|
D|-9---9-9---9-9---9---9-9---9-9------------|
A|------------------------------------------|
E|------------------------------------------|

   D               Em
E|------------------------------------------|
B|---------8-7------------------------------|
G|---7---------7-9---9-----9-----9----------|
D|-7---7-7---------9---9-9---9-9------------|
A|------------------------------------------|
E|------------------------------------------|

   Am              Em
E|------------------------------------------|
B|------------------------------------------|
G|---9-----9---7-9---9-----9---9-x----------|
D|-7---7-7---7-----9---9-9---9--------------|
A|------------------------------------------|
E|------------------------------------------|

   D
E|-10-10-10-10-10-10-10-10------------------|
B|-10-10-10-10-10-10-10-10------------------|
G|------------------------------------------|
D|------------------------------------------|
A|------------------------------------------|
E|------------------------------------------|

E|-10-10-10-10-10-10-10-10------------------|
B|-10-10-10-10-10-10-10-10------------------|
G|------------------------------------------|
D|------------------------------------------|
A|------------------------------------------|
E|------------------------------------------|

   A
E|--9--9--9--9--9--9--9--9------------------|
B|-10-10-10-10-10-10-10-10------------------|
G|------------------------------------------|
D|------------------------------------------|
A|------------------------------------------|
E|------------------------------------------|

E|--9--9--9--9--9--9--9--9------------------|
B|-10-10-10-10-10-10-10-10------------------|
G|------------------------------------------|
D|------------------------------------------|
A|------------------------------------------|
E|------------------------------------------|

   Em
   H.n
E|-12---------------------------------------|
B|-12---------------------------------------|
G|-12---------------------------------------|
D|------------------------------------------|
A|------------------------------------------|
E|------------------------------------------|

           Em
I've been waiting
           G
I've been waiting
 D                        Em
Waiting on another black summer to end

           Am
I've been waiting
           Em
I've been waiting
 D                                     A  Em
Waiting on another black summer to end
00:00 / 00:00
Otros videos de esta canción
Repetir
Otros videos de esta canción
Composición de Anthony Kiedis / Chad Smith / Flea / John Frusciante
Colaboración y revisión:
  • Vinícius Dias
  • Lucas Kappaun
6.921 exhibiciones
  • Simplificar cifrado
    • ½ Tono
    • Am
    • Bbm
    • Bm
    • Cm
    • C#m
    • Dm
    • Ebm
    • Em
    • Fm
    • F#m
    • Gm
    • G#m
  • Agregar a la lista
    00:00 / 00:00
    Capítulos
    • Apresentação
    • Afinação
    • Ensinando Introdução
    • Como Timbrar a Guitarra
    • Ensinando Estrofes
    • Ensinando Passagem
    • Ensinando Segunda Parte
    • Ensinando Refrão
    • Timbre do Solo
    • Ensinando Solo
    • Tocando Solo
    • Dicas Repetições e Final
    • Ensinando Final
    • Encerramento
    OK