Cifra Club

Don't Forget Me

Red Hot Chili Peppers

Tablatura: Principal
reproducciones 6.389
Tono: C
[Intro]  Am  F  C  G

          Am          F            C           G
E|---------------------------------------------------|
B|---------------------------------------------------|
G|---------------------------------------------------|
D|------------------------3/5-5-x-x-x-x--------------|
A|--7-x-x-x-x--3-x-x-x-x------3-x-x-x-x--5-x-x-x-x---|
E|--5-x-x-x-x--1-x-x-x-x-----------------3-x-x-x-x---|
           Am          F            C          G
E|---------------------------------------------------|
B|---------------------------------------------------|
G|---------------------------------------------------|
D|-------------------------5-x-x-x-x-----------------|
A|--7-x-x-x-x--3-x-x-x-x---3-x-x-x-x--5-x-x-x--------|
E|--5-x-x-x-x--1-x-x-x-x--------------3-x-x-x--------|
 
Am           F
I'm a oncean   in your bedroom
 C
Make you feel warm
 G                         Am
Make you want to re-absume
     F         C        G
Now we know it all for sure

[Verso 2]

E|-0--0--0-0-0-0-0-0-0-0-------------------------|
B|-----------------------------------------------|
G|-----------------------------------------------|
D|-----------------------------------------------|
A|-----------------------------------------------|
E|-----------------------------------------------|
      
I'm a dance hall   dirty breakbeat

Make the snow fall

Up from underneath your feet

Not alone, i'll be there

Tell me when you want to go

[Solo]
 
E|5h7-5h7-7h5-7h5-5h7-5h7-5h7-5h7-5h7-5h7-5h7-5h7-5h7-5h7-5h7-5h7-5h7--|
B|---------------------------------------------------------------------|
G|---------------------------------------------------------------------|
D|---------------------------------------------------------------------|
A|---------------------------------------------------------------------|
E|---------------------------------------------------------------------|
         
E|-5--8-5p0-8-5p0-8-5p0-8-5p0-8-5p0-8-5p0-8-5p0-8-5p0-8-5p0-8-5p0-8-5--|
B|---------------------------------------------------------------------|
G|---------------------------------------------------------------------|
D|---------------------------------------------------------------------|
A|---------------------------------------------------------------------|
E|---------------------------------------------------------------------|
   
E|-0--0--0-0-0-0-0-0-0-0--------------------------|
B|------------------------------------------------|
G|------------------------------------------------|
D|------------------------------------------------|
A|------------------------------------------------|
E|------------------------------------------------|
      
[Verso 3]

E|-0--0--0-0-0-0-0-0-0-0--------------------------|
B|------------------------------------------------|
G|------------------------------------------------|
D|------------------------------------------------|
A|------------------------------------------------|
E|------------------------------------------------|
      
I'm a meth lab    first rehab

Take it all off

And step inside the running  cab

There's a love that knows the way

Verso 4:

[Solo]
 
E|5h7-5h7-7h5-7h5-5h7-5h7-5h7-5h7-5h7-5h7-5h7-5h7-5h7-5h7-5h7-5h7-5h7--|
B|---------------------------------------------------------------------|
G|---------------------------------------------------------------------|
D|---------------------------------------------------------------------|
A|---------------------------------------------------------------------|
E|---------------------------------------------------------------------|
     
E|-5--8-5p0-8-5p0-8-5p0-8-5p0-8-5p0-8-5p0-8-5p0-8-5p0-8-5p0-8-5p0-8-5--|
B|---------------------------------------------------------------------|
G|---------------------------------------------------------------------|
D|---------------------------------------------------------------------|
A|---------------------------------------------------------------------|
E|---------------------------------------------------------------------|
   
I'm the rainbow    in your jail cell

All the memories of

Everything you've ever smelled

Not alone, i'll be there

Tell me when you want to go

[Verso 4]

Oh...(Sideways falling. More will be revealed my fiend)

E|-5-5-5-5-5-5-5-5-5-5-5-5-5-5-5-5-5-5-5-5-5-5-5-5-5-5-5-|
B|-5-5-5-5-5-5-5-5-5-5-5-5-5-5-5-5-5-5-5-5-5-5-5-5-5-5-5-|
G|-x-x-x-x-x-x-x-x-x-x-x-x-x-x-x-x-x-x-x-x-x-x-x-x-x-x-x-|
D|-x-x-x-x-x-x-x-x-x-x-x-x-x-x-x-x-x-x-x-x-x-x-x-x-x-x-x-|
A|-------------------------------------------------------|
E|-------------------------------------------------------|
  
 Don't forget me i cant hide it.  Come again get reignited

E|-17-17-17-17-17-17-17-17-17-17-17-17-17-17-17-17-17-17-17-|
B|-17-17-17-17-17-17-17-17-17-17-17-17-17-17-17-17-17-17-17-|
G|-x-x-x-x-x-x-x-x-x-x-x-x-x-x-x-x-x-x-x-x-x-x-x-x-x-x-x-x--|
D|-x-x-x-x-x-x-x-x-x-x-x-x-x-x-x-x-x-x-x-x-x-x-x-x-x-x-x-x--|
A|----------------------------------------------------------|
E|----------------------------------------------------------|
  

A5                 F5
Oh...(Sideways falling
 C5                    G5
More will be revealed my fiend)
 A5             F5
Don't forget me i cant hide it
 C5              G5
Come again get reignited

[Solo]

E|--12b------------------------------------------------|
B|-----------------------------------------------------|
G|------12~--14-14-14-14-14-----------12---------------|
D|--------------------------14-14-14-------------------|
A|-----------------------------------------------------|
E|-----------------------------------------------------|
 
E|-12-12-14b-12----------------------------------------|
B|--------------------------12----12-------------------|
G|--------------12-14-14-14----14----14--12----14-12---|
D|------------------------------------------14-------14|
A|-----------------------------------------------------|
E|-----------------------------------------------------|
 

E|-0--0--0-0-0-0-0-0-0-0------------------------------|
B|----------------------------------------------------|
G|----------------------------------------------------|
D|----------------------------------------------------|
A|----------------------------------------------------|
E|----------------------------------------------------|
      
[Verso 5]

E|-0--0--0-0-0-0-0-0-0-0------------------------------|
B|----------------------------------------------------|
G|----------------------------------------------------|
D|----------------------------------------------------|
A|----------------------------------------------------|
E|----------------------------------------------------|
      
      
I'm a inbred   and a pothead

Two legs that you spread

Inside the tool shed

Now we know it all for sure


[Verso 6]

[Solo]

E|5h7-5h7-7h5-7h5-5h7-5h7-5h7-5h7-5h7-5h7-5h7-5h7-5h7-5h7-5h7-5h7-5h7--|
B|---------------------------------------------------------------------|
G|---------------------------------------------------------------------|
D|---------------------------------------------------------------------|
A|---------------------------------------------------------------------|
E|---------------------------------------------------------------------|
         
E|-5--8-5p0-8-5p0-8-5p0-8-5p0-8-5p0-8-5p0-8-5p0-8-5p0-8-5p0-8-5p0-8-5--|
B|---------------------------------------------------------------------|
G|---------------------------------------------------------------------|
D|---------------------------------------------------------------------|
A|---------------------------------------------------------------------|
E|---------------------------------------------------------------------|
   
I could show you

To the free field

Overcome and more

Will always be revealed

Not alone i'll be there

Tell me when you want to go

Oh...(Sideways falling. More will be revealed my fiend)

E|-5-5-5-5-5-5-5-5-5-5-5-5-5-5-5-5-5-5-5-5-5-5-5-5-5-5-5-|
B|-5-5-5-5-5-5-5-5-5-5-5-5-5-5-5-5-5-5-5-5-5-5-5-5-5-5-5-|
G|-x-x-x-x-x-x-x-x-x-x-x-x-x-x-x-x-x-x-x-x-x-x-x-x-x-x-x-|
D|-x-x-x-x-x-x-x-x-x-x-x-x-x-x-x-x-x-x-x-x-x-x-x-x-x-x-x-|
A|-------------------------------------------------------|
E|-------------------------------------------------------|
  
 Don't forget me i cant hide it.  Come again get reignited

E|-17-17-17-17-17-17-17-17-17-17-17-17-17-17-17-17-17-17-17-|
B|-17-17-17-17-17-17-17-17-17-17-17-17-17-17-17-17-17-17-17-|
G|-x-x-x-x-x-x-x-x-x-x-x-x-x-x-x-x-x-x-x-x-x-x-x-x-x-x-x-x--|
D|-x-x-x-x-x-x-x-x-x-x-x-x-x-x-x-x-x-x-x-x-x-x-x-x-x-x-x-x--|
A|----------------------------------------------------------|
E|----------------------------------------------------------|
  

A5                 F5
Oh...(Sideways falling
 C5                    G5
More will be revealed my fiend)
 A5             F5
Don't forget me i cant hide it
 C5              G5
Come again get reignited

A5                 F5
Oh...(Sideways falling
 C5                    G5
More will be revealed my fiend)
 A5             F5
Don't forget me i cant hide it
 C5              G5
Come again get reignited

[Solo]

E|---------------------------------------------|
B|--10-8---10-8-------10-8---10-8--------------|
G|-------9-------9-9-------9------9------------|   
D|---------------------------------------------| (4x)
A|---------------------------------------------|
E|---------------------------------------------|
 

[Verso 7]
Am
I'm the bloodstain
F
On your shirt sleeve
 C               G                          Am
Coming down and more are coming  to believe
         F     C        G
Now me know it all for sure

E|-0--0--0-0-0-0-0-0-0-0----------------------|
B|--------------------------------------------|
G|--------------------------------------------|
D|--------------------------------------------|
A|--------------------------------------------|
E|--------------------------------------------|
      
Make the hair stand

Up on your arm

Teach you how to dance

Inside the funny farm

Not alone, i'll be there

Tell me when you want to go
Acordes para:
    Compositor: Anthony Kiedis / Chad Smith / Flea / John FruscianteColaboración y revision:
    • Robson Ramalho
    • Gabriel Campos
    • Roberto Vale

    0 comentarios

      mostrar más comentarios

      ¿Conseguiste tocar?

      43tocaron1aún no

      ¡Graba un vídeo tocando Don't Forget Me y envianoslo!

      00:00 / 00:00
      outros vídeos desta música
      repetirqualidadeautomática
      Outro vídeos desta música
        00:00 / 00:00
        automática
        OK