Enviar cifraEntrar

Dosed

Red Hot Chili Peppers

Acordes: Principal
reproducciones 8.579
Tono: G

E|----------------------------------------------|
B|---17-------------15------------12------------|
G|------16-------------14------------12---------|
D|---------17-------------16------------14------|
A|----------------------------------------------|
E|----------------------------------------------|

  

E|----------------------------------------------|
B|----------------------------------------------|
G|--4---4---7---4---4------4---4---7---4---4----|
D|----------------------------------------------|
A|----------------------------------------------|
E|----------------------------------------------|

  

E|----------------------------------------------|
B|----------------------------------------------|
G|--4---4---7---4---4------4---4---7---9---4----|
D|----------------------------------------------|
A|----------------------------------------------|
E|----------------------------------------------|

  
" I  got dosed by you, closer to do?"

E|----------------------------------------------|
B|-15----------------------15-------------------|
G|-------11---12---------------11---12----------|
D|----------------------------------------------|
A|----------------------------------------------|
E|----------------------------------------------|

  
Than most to you, what am i supposed

E|----------------------------------------------|
B|------------15--------------------------------|
G|---------------11---12------------------------|
D|----------------------------------------------|
A|----------------------------------------------|
E|----------------------------------------------|

  
Take it away I never had it anyway,

E|-------19--17--15--14--15---------------------|
B|----------------------------------------------|
G|----------------------------------------------|
D|----------------------------------------------|
A|----------------------------------------------|
E|----------------------------------------------|

  
Take it away and everything will be ok

E|----------------------15--14--12--10--12------|
B|----------------------------------------------|
G|----------------------------------------------|
D|----------------------------------------------|
A|----------------------------------------------|
E|----------------------------------------------|

  
In you a star is born, you cut a perfect form, warm

E|----------------------------------------------|
B|----------------------------------------------|
G|--4---4---7---4---4--------4---4---7---4---4--|
D|----------------------------------------------|
A|----------------------------------------------|
E|----------------------------------------------|

  
Someone forever

E|----------------------------------------------|
B|--15----------15----------15------------------|
G|-----11--12-------11--12-----11--12-----------|
D|----------------------------------------------|
A|----------------------------------------------|
E|----------------------------------------------|

  
"Lay on lay on lay on lay on"

E|-------19--17--15--14--15---------------------|
B|----------------------------------------------|
G|----------------------------------------------|
D|----------------------------------------------|
A|----------------------------------------------|
E|----------------------------------------------|

  
"Lay on lay on lay on lay on"

E|-------------15--14--12--10--12---------------|
B|----------------------------------------------|
G|----------------------------------------------|
D|----------------------------------------------|
A|----------------------------------------------|
E|----------------------------------------------|


[Guitarra 1]

     G         D          Em        C
E|---3---------5----------7---------8----------|
B|---3---------7----------8---------8----------|
G|---4---------7----------9---------9----------|
D|---5---------7----------9---------10---------|
A|---5---------5----------7---------10---------|
E|---3---------5----------7---------8----------|

  
[Guitarra 2]

"Way upon the mountain where she died"

E|-----7---8--10-------------------------------|
B|-----8---------------------------------------|
G|----------------------11---12--14------------|
D|----------------------12---------------------|
A|---------------------------------------------|
E|---------------------------------------------|

  

E|--12----12----12-------12-----15--14--12--10-|
B|---------------------------12----------------|
G|---------------------------------------------|
D|---------------------------------------------|
A|---------------------------------------------|
E|---------------------------------------------|

  
"All I ever wanted was your life"

E|----7---8--7---------------------------------|
B|----8----------------------12----13------12--|
G|-------------------11-----12----12------12---|
D|-------------------12------------------------|
A|---------------------------------------------|
E|---------------------------------------------|

  

E|---------------------------------------------|
B|-12--12-12-12--13--12-12------12-------------|
G|-12--12-12-12--12--12-12-12--12--------------|
D|----------------------------------------14---|
A|---------------------------------------------|
E|---------------------------------------------|

  
"Deep inside the canyon i can't hide"

E|----7---8--10---------------------------12--|
B|----8---------------------------------------|
G|---------------------11---12--14------------|
D|---------------------12---------------------|
A|--------------------------------------------|
E|--------------------------------------------|

  

E|--12----12-------12--------15--14--12--10--|
B|------------------------12-----------------|
G|-------------------------------------------|
D|-------------------------------------------|
A|-------------------------------------------|
E|-------------------------------------------|

  
"All I ever wanted was your life”

E|---7---8--7--------------------------------|
B|---8-------------------------12----13------|
G|---------------------11-----12----12-------|
D|---------------------12--------------------|
A|-------------------------------------------|
E|-------------------------------------------|

  

E|-------------------------------------------|
B|---12----12--12-12-12--13--13-13-15--15----|
G|--12----12--12-12-12--12--12-12-12--12-----|
D|-------------------------------------------|
A|-------------------------------------------|
E|-------------------------------------------|

 

E|-12-10-12-10-12-10-12-10-12-10-------------|
B|-------------------------------12-12--12-12|
G|-------------------------------------------|
D|-------------------------------------------|
A|-------------------------------------------|
E|-------------------------------------------|

        

E|-12-10-12-10-12-10-12-10-12-10-------------|
B|-------------------------------12-12--12-12|
G|-------------------------------------------|
D|-------------------------------------------|
A|-------------------------------------------|
E|-------------------------------------------|

        

E|-------------------------------------------|
B|-13-13-13--13--13-12-----------------------|
G|---------------------12-12-12-11-12-12-----|
D|-------------------------------------------|
A|-------------------------------------------|
E|-------------------------------------------|

  

E|--------------------------------------------------------|
B|--12--13--12--13--12--13--12----------------------------|
G|----12--12--12--12--12--12--12--12--12--12--------------|
D|----------------------------------------------14--14--14|
A|--------------------------------------------------------|
E|--------------------------------------------------------|

  

E|-12-10-12-10-12-10-12-10-12-10-------------------------|
B|-------------------------------12-12--12-12------------|
G|-------------------------------------------------------|
D|-------------------------------------------------------|
A|-------------------------------------------------------|
E|-------------------------------------------------------|

        

E|-12-10-12-10-12-10-12-10-12-10-------------------------|
B|-------------------------------12-12--12-12------------|
G|-------------------------------------------------------|
D|-------------------------------------------------------|
A|-------------------------------------------------------|
E|-------------------------------------------------------|

        

E|-10~-10~-10~-------------------------------------------|
B|-------------12b13-12b13-12b13r--12----12b13r---15-----|
G|-------------------------------------------------------|
D|-------------------------------------------------------|
A|-------------------------------------------------------|
E|-------------------------------------------------------|

  
[Intro]  C  C7M  D  Em

C      D        Em
I got dosed by you
  C          D      Em
Closer than most to you
  C        D           Em
What am I supposed to do

 C
Take it away
   D             Em
I never had it anyway
 C
Take it away
    D                Em
And everything will be ok

[C  D  Em]

C          D      Em
In you a star is born
 C         D       Em
You cut a perfect form
 C         D     Em
Someone forever warm

 C               D       Em
Lay on, lay on, lay on, lay on,
 C               D       Em
Lay on, lay on, lay on, lay on


 G             D
Way upon the mountain
        Em      C  C9
Where she died
G           D
All I ever wanted
      Em     C C7M C9
Was your life
 G               D
Deep inside the canyon
       Em    C  C9
I can hide
G           D
All I ever wanted
          Em    C C7M C9
Was your life

[C  D  Em]

  C             D    Em
Show love with no remorse
  C           D       Em
Climb on to your sea horse
  C           D        Em
This ride is right on course
  C             D
This the way I wanted
       Em
It to be with you
  C              D
This the way I knew
               Em
That it would be with you
 C               D       Em
Lay on, Lay on, Lay on, lay on...


 G             D
Way upon the mountain
        Em      C  C9
Where she died
G           D
All I ever wanted
      Em     C C7M C9
Was your life
 G               D
Deep inside the canyon
       Em    C  C9
I can hide
G           D
All I ever wanted
          Em    C C7M C9
Was your life


C      D        Em
I got dosed by you
  C          D       Em
Closer than most to you
  C        D           Em
What am I supposed to do

 C
Take it away
   D             Em
I never had it anyway
 C
Take it away
    D                Em
And everything will be ok


 G             D
Way upon the mountain
        Em      C  C9
Where she died
G           D
All I ever wanted
      Em     C C7M C9
Was your life
 G               D
Deep inside the canyon
       Em    C  C9
I can hide
G           D
All I ever wanted
          Em    C C7M C9
Was your life
  • 1
  • 2
  • 3
  • 4
  • 5
  • 6
  • 7
  • 8
  • 9
  • 10
  • 11
  • 12

    0 comentarios

      mostrar mas comentarios

      ¿Conseguiste tocar?

      47tocaron0aún no

      ¡Grave un vídeo tocando Dosed y envie para nosotros!

      00:00 / 00:00
      outros vídeos desta música
      repetirqualidadeautomática
      • automática
      Outro vídeos desta música
        00:00 / 00:00
        automática
        • automática
        5 versiones de Contrabajoreproduccionescontribuciones
        1 versión de Bateríareproduccionescontribuciones
        2 versiones de Guitar Proformatodownloadscontribución
        cerrarplay/pause subir/bajar velocidad
          Acordes para:guitarra
          acordes
          cerrar
          OK