Cifra Club

Encore

Red Hot Chili Peppers

Cifrado: Principal (guitarra y guitarra eléctrica)
tono: B
[Intro] 
                                                
E|------------------------------------------------------------|
B|------------------------------------------------------------|
G|---13h15----13h15----13h15---13h15----13h15---13h15---------|
D|13-------13-------13-------13------13------13--------16-----|           
A|-----------------------------------------------------14-----|
E|------------------------------------------------------------|

[Refrão]
        
E|------------------------------12-12--12h14--12-12-12-12-------|
B|-14-14-14-12-14-12-14-12------12-12--12-----12-12-12-12-------|
G|-13-13-13-13-13-13-13-13------13-13--13-----13-13-13-13-------|
D|--------------------------/14-14-14--14-----14-14-14-14-------|
A|--------------------------------------------------------------|
E|--------------------------------------------------------------|

E|-11-11-11-11-11-11---14-14-14-14h16--14-14-14--|
B|-12-12-12-12-12-12---14-14-14-14-----14-14-14--|
G|-11-11-11-11-11-12---15-15-15-15-----15-15-15--|
D|-13-13-13-13-13-13---16-16-16-16-----16-16-16--|
A|-----------------------------------------------|
E|-----------------------------------------------|

E|------------------------------12-12-12h14--12-12-12-12-------|
B|-14-14-14-12-14-12-14-12------12-12-12-----12-12-12-12-------|
G|-13-13-13-13-13-13-13-13------13-13-13-----13-13-13-13-------|
D|--------------------------/14-14-14-14-----14-14-14-14-------|
A|-------------------------------------------------------------|
||-------------------------------------------------------------|

E|-11-11-11-11-11-11--11-11-11-11-11-----11-11-----------------|
B|-12-12-12-12-12-12--12-12-12-12-12p12--12-12-14/16-----------|
G|-13-13-13-13-13-13--11-11-11-11-11-----11-11-----------------|
D|--------------------13-13-13-13-13-----13-13-----------------|
A|-------------------------------------------------------------|
E|-------------------------------------------------------------|

E|------------------------------12-12--12h14--12-12-12-12-------|
B|-14-14-14-12-14-12-14-12------12-12--12-----12-12-12-12-------|
G|-13-13-13-13-13-13-13-13------13-13--13-----13-13-13-13-------|
D|--------------------------/14-14-14--14-----14-14-14-14-------|
A|--------------------------------------------------------------|
E|--------------------------------------------------------------|

E|-11-11-11-11-11-11---14-14-14-14h16--14-14-14--|
B|-12-12-12-12-12-12---14-14-14-14-----14-14-14--|
G|-11-11-11-11-11-12---15-15-15-15-----15-15-15--|
D|-13-13-13-13-13-13---16-16-16-16-----16-16-16--|
A|-----------------------------------------------|
E|-----------------------------------------------|

E|-11-11-11-11-11-11--------------------|
B|-12-12-12-12-12-12--------------------|
G|-13-13-13-13-13-13--------------------|
D|-14-14-14-14-14-14--------------------|
A|--------------------------------------|
E|--------------------------------------|

[Intro]

Riff
E|------------------------------------------|
B|------------------------------------------|
G|-8--6-6h8---------------------------------|
D|------------8-8---8-9-11-9----------------|
A|------------------------------------------|
E|------------------------------------------|

E|------------------------------------------|
B|------------------------------------------|
G|-8--6-6h8-6b------------------------------|
D|--------------6h8-8-9-8-------------------|
A|------------------------------------------|
E|------------------------------------------|

[Refrão]

E|------------------------------12-12--12h14--12-12-12-12-------|
B|-14-14-14-12-14-12-14-12------12-12--12-----12-12-12-12-------|
G|-13-13-13-13-13-13-13-13------13-13--13-----13-13-13-13-------|
D|--------------------------/14-14-14--14-----14-14-14-14-------|
A|--------------------------------------------------------------|
E|--------------------------------------------------------------|

E|-11-11-11-11-11-11---14-14-14-14h16--14-14-14--|
B|-12-12-12-12-12-12---14-14-14-14-----14-14-14--|
G|-11-11-11-11-11-12---15-15-15-15-----15-15-15--|
D|-13-13-13-13-13-13---16-16-16-16-----16-16-16--|
A|-----------------------------------------------|
E|-----------------------------------------------|

E|------------------------------12-12-12h14--12-12-12-12-------|
B|-14-14-14-12-14-12-14-12------12-12-12-----12-12-12-12-------|
G|-13-13-13-13-13-13-13-13------13-13-13-----13-13-13-13-------|
D|--------------------------/14-14-14-14-----14-14-14-14-------|
A|-------------------------------------------------------------|
||-------------------------------------------------------------|

E|-11-11-11-11-11-11--11-11-11-11-11-----11-11-----------------|
B|-12-12-12-12-12-12--12-12-12-12-12p12--12-12-14/16-----------|
G|-13-13-13-13-13-13--11-11-11-11-11-----11-11-----------------|
D|--------------------13-13-13-13-13-----13-13-----------------|
A|-------------------------------------------------------------|
E|-------------------------------------------------------------|

E|------------------------------12-12--12h14--12-12-12-12-------|
B|-14-14-14-12-14-12-14-12------12-12--12-----12-12-12-12-------|
G|-13-13-13-13-13-13-13-13------13-13--13-----13-13-13-13-------|
D|--------------------------/14-14-14--14-----14-14-14-14-------|
A|--------------------------------------------------------------|
E|--------------------------------------------------------------|

E|-11-11-11-11-11-11---14-14-14-14h16--14-14-14--|
B|-12-12-12-12-12-12---14-14-14-14-----14-14-14--|
G|-11-11-11-11-11-12---15-15-15-15-----15-15-15--|
D|-13-13-13-13-13-13---16-16-16-16-----16-16-16--|
A|-----------------------------------------------|
E|-----------------------------------------------|

E|-11-11-11-11-11-11--------------------|
B|-12-12-12-12-12-12--------------------|
G|-13-13-13-13-13-13--------------------|
D|-14-14-14-14-14-14--------------------|
A|--------------------------------------|
E|--------------------------------------|

[Ponte]

E|--------------------------------------------------|
B|--------------------------------------------------|
G|----9-------8---8------11----------15----15-------|
D|-11---11--9---9---9/12----12-12/16----16----------|
A|--------------------------------------------------|
E|--------------------------------------------------|

Riff
E|------------------------------------------------|
B|------------------------------------------------|
G|-----9---------7---7------11---------9----9-----|
D|-----9---------7---7------11---------9----9-----|
A|-/11---11-11/9---9----/13----13--/11---11-------|
E|------------------------------------------------|

[Intro] 
                                                
E|------------------------------------------------------------|
B|------------------------------------------------------------|
G|---13h15----13h15----13h15---13h15----13h15---13h15---------|
D|13-------13-------13-------13------13------13--------16-----|           
A|-----------------------------------------------------14-----|
E|------------------------------------------------------------|

[Refrão]

E|------------------------------12-12--12h14--12-12-12-12-------|
B|-14-14-14-12-14-12-14-12------12-12--12-----12-12-12-12-------|
G|-13-13-13-13-13-13-13-13------13-13--13-----13-13-13-13-------|
D|--------------------------/14-14-14--14-----14-14-14-14-------|
A|--------------------------------------------------------------|
E|--------------------------------------------------------------|

E|-11-11-11-11-11-11---14-14-14-14h16--14-14-14--|
B|-12-12-12-12-12-12---14-14-14-14-----14-14-14--|
G|-11-11-11-11-11-12---15-15-15-15-----15-15-15--|
D|-13-13-13-13-13-13---16-16-16-16-----16-16-16--|
A|-----------------------------------------------|
E|-----------------------------------------------|

E|------------------------------12-12-12h14--12-12-12-12-------|
B|-14-14-14-12-14-12-14-12------12-12-12-----12-12-12-12-------|
G|-13-13-13-13-13-13-13-13------13-13-13-----13-13-13-13-------|
D|--------------------------/14-14-14-14-----14-14-14-14-------|
A|-------------------------------------------------------------|
||-------------------------------------------------------------|

E|-11-11-11-11-11-11--11-11-11-11-11-----11-11-----------------|
B|-12-12-12-12-12-12--12-12-12-12-12p12--12-12-14/16-----------|
G|-13-13-13-13-13-13--11-11-11-11-11-----11-11-----------------|
D|--------------------13-13-13-13-13-----13-13-----------------|
A|-------------------------------------------------------------|
E|-------------------------------------------------------------|

E|------------------------------12-12--12h14--12-12-12-12-------|
B|-14-14-14-12-14-12-14-12------12-12--12-----12-12-12-12-------|
G|-13-13-13-13-13-13-13-13------13-13--13-----13-13-13-13-------|
D|--------------------------/14-14-14--14-----14-14-14-14-------|
A|--------------------------------------------------------------|
E|--------------------------------------------------------------|

E|-11-11-11-11-11-11---14-14-14-14h16--14-14-14--|
B|-12-12-12-12-12-12---14-14-14-14-----14-14-14--|
G|-11-11-11-11-11-12---15-15-15-15-----15-15-15--|
D|-13-13-13-13-13-13---16-16-16-16-----16-16-16--|
A|-----------------------------------------------|
E|-----------------------------------------------|

E|-11-11-11-11-11-11--------------------|
B|-12-12-12-12-12-12--------------------|
G|-13-13-13-13-13-13--------------------|
D|-14-14-14-14-14-14--------------------|
A|--------------------------------------|
E|--------------------------------------|

[Final]

E|--------------------------------------------|
B|-----------7--------------------------------|
G|---6h8-6-----8------b6-6--4--6b-------------|
D|-9-------------9----------------------------|
A|--------------------------------------------|
E|--------------------------------------------|

E|-------------------2h4-------------|
B|-----------------------------------|
G|-6/8-4h6-6--3b-4-------------------|
A|-----------------------------------|
E|-----------------------------------|
Composición de Anthony Kiedis / Chad Smith / Flea / Josh Klinghoffer
Colaboración y revisión:
  • vitor sousa
  • omar jabbar
1.010 vistas
    • ½ Tono
    • A
    • Bb
    • B
    • C
    • Db
    • D
    • Eb
    • E
    • F
    • F#
    • G
    • Ab
  • Agregar a la lista

    0 comentarios

    Ver todos los comentarios
    00:00 / 00:00
    Otros videos de esta canción
    Repetir Calidad Automático
    Otros videos de esta canción
    00:00 / 00:00
    Automático
    OK