Cifra Club

Aprenda

Funky Monks

Red Hot Chili Peppers

Tablatura: Principal (guitarra)
tono: G
[Intro]

E|-----------------------------------------|
B|------3-----3-3-3-------3-----5b-5--3----|
G|------3-----3-3-3-------3-----5b-5--3----|
D|---------5--------5--3h5--5p3------------|
A|-----------------------------5-----------|
E|---3-------------------------------------|

E|-----------------------------------------------|
B|------3-----3-3-3---------3-------------5b-5--3|
G|------3-----3-3-3---------3-------------5b-5--3|
D|---------5--------5--5p3-----5--3--------------|
A|-----------------------------------5p3---------|
E|-1h3-------------------------------------------|

[Primeira Parte]

E|-----------------------------------------|
B|------3-----3-3-3-------3-----5b-5--3----|
G|------3-----3-3-3-------3-----5b-5--3----|
D|-3h5-----5---------5p3-----5-------------|
A|-----------------------------------------|
E|-----------------------------------------|

[Refrão]

E|-----------4--4\3-----------------------0--|
B|-----------5--5\4-----4--3^1---------------|
G|-2----5----------------------2-------------|
D|-2----5---------------------------1--------|
A|-0----3------------------------------------|
E|--------------------1----------0-----0-----|

E|---------------------------------|
B|---------------------------------|
G|---------------------------------|
D|---------------------------------|
A|-5----3-----5/6---5^3-5^3--------|
E|--------5-----------------5^3-5--|

[Solo]

E|-------------------------------|
B|-------------------------------|
G|-9b--7-9-7-9-7-9-7-9-7-----9---|
D|-------------------------------|
A|-------------------------------|
E|-------------------------------|

E|-10b-10b-7----7----10----------------------|
B|-----------10------------------------------|
G|----------------9b----9b-9^7-9-7-----------|
D|---------------------------------9-7-9-7---|
A|-----------------------------------------5-|
E|-------------------------------------------|

E|-------------------------------|
B|----------------------------7\-|
G|----------------------------7\-|
D|----------------------------7\-|
A|-7-5-7b--7^5-7--5--------------|
E|---------------------/7\-------|

E|------------------------------------------------|
B|------------------------------------------------|
G|------------------------------------------------|
D|------3--3---------3-----5b-3-----3-------------|
A|-3^5-------5^3b--5---3-5------3-5---3-5-3-5-----|
E|---------------------------------------------1--|

E|-------------------------------------------------------|
B|-13^10----13^10----13^10----13^10----13^10----13^10----|
G|-------12-------12-------12-------13-------13-------13-|
D|-------------------------------------------------------|
A|-------------------------------------------------------|
E|-------------------------------------------------------|

E|---------------------------------------------------------------|
B|-13^10----13^10----13^10----13^10----13^10----13^10------------|
G|-------13-------13-------13-------13-------13-------13-12b--10-|
D|---------------------------------------------------------------|
A|---------------------------------------------------------------|
E|---------------------------------------------------------------|

E|-------------------------------------------------------------------|
B|-------------------------------10--10--12--------------13b-13b-13b-|
G|-------------------------------10--10--12--------10----------------|
D|-12-10-12--12-10-12--12-10-12--------------10-12----12-------------|
A|-------------------------------------------------------------------|
E|-------------------------------------------------------------------|

[Outro]

E|--14---14---14--------7-------14---14---14--------7------10--|
B|--15---15---15-----------10---15---15---15-----------10------|
G|-------------------------------------------------------------|
D|-----------------7^9-------------------------7^9-------------|
A|-------------------------------------------------------------|
E|-------------------------------------------------------------|
Composição de Anthony Kiedis / Chad Smith / Flea / John Frusciante
Colaboración y revision:
  • AndreiXB #Nutella
  • Lucas Bernardes
2.624 reproducciones
    • ½ Tono
    • A
    • Bb
    • B
    • C
    • Db
    • D
    • Eb
    • E
    • F
    • F#
    • G
    • Ab
  • Adicionar à lista

    0 comentarios

    Ver todos os comentários

    ¿Conseguiste tocar?

    6 Tocaram 0 Ainda não

    Grave um vídeo tocando Funky Monks e nos envie!

    00:00 / 00:00
    outros vídeos desta música
    repetir qualidade Automático
    Outros vídeos desta música
    00:00 / 00:00
    Automático
    OK