Cifra Club

Higher Ground

Red Hot Chili Peppers

Tab de bajo: Versão 2
Grande parte do baixo dessa música usa é tocada como a intro, com
pequenas modificações. Para essas partes (e, claro, a intro) use slaps.


Intro:

G||--------------------------------|--------------------------------|
D||--------2-----------5--------7--|--------2-----------5-----7-----|
A||--------------------------------|--------------------------------|
E||--0--0-----0--3--3-----5--5-----|--0--0-----0--3--3-----5-----5--|

toque essa linha duas vezes, então, a seguinte parte quatro vezes:


--------------------------------|----------------------------------|
--------2-----------5--------7--|--------2-------------------------|
--------------------------------|---------------------2------------|
--0--0-----0--3--3-----5--5-----|--0--0-----0--3--5------5--3--3---|

--------------------------------|-----------------------------|
--------2-----------5--------7--|--------2--------------------|
--------------------------------|--------------5--4-----------|
--0--0-----0--3--3-----5--5-----|--0--0-----0--------7--5--3--|



Verso:

--------------------------------|--------------------------------|
--------2-----------5--------7--|--------2-----------5-----7-----|
--------------------------------|--------------------------------|
--0--0-----0--3--3-----5--5-----|--0--0-----0--3--3-----5-----5--|

essa é a linha básica do verso
toque essa linha 6 vezes, então na parte que muda (quando o Anthony canta "world, keep on turning...")faça isso:


--------------------------------|--------------------------------|
--------4-----------7--------9--|--------4-----------7-----9-----|
--------------------------------|--------------------------------|
--2--2-----2--5--5-----7--7-----|--2--2-----2--5--5-----7-----7--|

-----------------------------|--------7--------7--------7--------5--|
--------------7-----5--------|--------------------------------------|
-----------------------7--6--|--5--5-----5--5-----5--5-----3--3-----|
--5--5--5--5-----5-----------|--------------------------------------|

então toque a linha básica 2 vezes
toque tudo isso duas vezes antes de tocar o refrão.
(os dois versos são iguais)


Refrão:
  
--------------------------|--------------------------------------|
--------------------------|--------------------------------------|
--------------------------|--7--7--7--5--------7--7--7--------5--|
--5-----5--3--5--3--5--3--|--------------7--5-----------5--7-----|

 
--------------------------|--------------------------------------|
--------------------------|--------------------------------------|
--------------------------|--7--7--7--5--------7--7--7--------5--|
--5-----5--3--5--3--5--3--|--------------7--5-----------5--7-----|



-----9h11--9----------------------------|----------------------------------------|
--------------11--10--9--7-----9--7-----|---7--9--7------------------------------|
--9-------------------------9--------9--|------------9--8--7---------------------|
----------------------------------------|---------------------9--8--7--7--10--7--|

então toque a linha básica duas vezes antes do próximo verso


--------------------------------|--------------------------------|
--------2-----------5--------7--|--------2-----------5-----7-----|
--------------------------------|--------------------------------|
--0--0-----0--3--3-----5--5-----|--0--0-----0--3--3-----5-----5--|
(toque 2 vezes e então toque o verso)



após tocar o segundo verso, toque novamente o refrão. após o refrão, toque a seguinte parte quatro vezes:

--------------------------------|----------------------------------|
--------2-----------5--------7--|--------2-------------------------|
--------------------------------|---------------------2------------|
--0--0-----0--3--3-----5--5-----|--0--0-----0--3--5------5--3--3---|

--------------------------------|-----------------------------|
--------2-----------5--------7--|--------2--------------------|
--------------------------------|--------------5--4-----------|
--0--0-----0--3--3-----5--5-----|--0--0-----0--------7--5--3--|


depois dessa parte, há o finalzinho da música (uma parte mais rápida)
espere a guitarra tocar a linha 2 vezes então entre:

   
-------------------------|----------------------|
-------------------------|----------------------|
-------------------------|----------------------|
--0----0--0--0--0--0--0--|--3------5-------3----|


-------------------------|----------------------|-------------------------|
-------------------------|----------------------|-------------------------|
-------------------------|----------------------|-------------------------|
--0----0--0--0--0--0--0--|--3------5-------3----|--0----0--0--0--0--0--0--|


----------------------|---------------------||
----------------------|---------------------||
----------------------|---------------------||
--3------5-------3----|--0------------------||
00:00 / 00:00
Otros videos de esta canción
Repetir
Otros videos de esta canción
Composición de Stevie Wonder
Colaboración y revisión:
  • Samuel Paula
27 exhibiciones
00:00 / 00:00
OK