Cifra Club

I Could Have Lied

Red Hot Chili Peppers

Tablatura: Principal (guitarra)
Tom: E
 Intro (0:00)
E|---------------------------------|-----------------------------------|
B|---------------------------------|-----------------------------------|
G|---------------------------------|-----------------------------------|
D|----0--4--0--4--0--4-4/7-5-4-----|-----0--4--0--4--0--4/7-5-4--------|
A|-0h2--2--2--2--2--2--0-------5--|-0h2--2--2--2--2--2-0--------5------|
E|---------------------------3--3--|--------------------------3--3-----|

  Verso 1 (0:14)
E|---------------------------------|-----------------------------------|
B|---------------------------------|-----------------------------------|
G|---------------------------------|-----------------------------------|
D|----0--4--0--4--0--4-4/7-5-4-----|-----0--4--0--4--0--4/7-5-4--------|
A|-0h2--2--2--2--2--2--0-------5--|-0h2--2--2--2--2--2--0-------5------|
E|---------------------------3--3--|--------------------------3--3-----|
   There must be something...      feel

E|--------------------------------|-----------------------------------|
B|--------------2h3p2-------------|-----------------------------------|
G|--------------------------------|-----------------------------------|
D|----0--4--0--4-----4-4/7-5-4----|-----0--4--0--4--0--4/7-5-4--------|
A|-0h2--2--2--2--------0-------5--|-0h2--2--2--2--2--2-0-------5------|
E|---------------------------3--3-|--------------------------3--3-----|
   Stare she bares...              bleed
 
Pre-Refrão (0:42)

B                          D
I could never change Just what I feel 

A9                       G9
My face will never show What is not real

  (0:48)
E|--------------------------------|-----------------------------------|
B|--------------2h3p2--(6r5)------|-----------------------------------|
G|--------------------------------|-----------------------------------|
D|----0--4--0--4-----4-4/7-5-4----|-----0--4--0--4--0--4/7-5-4--------|
A|-0h2--2--2--2--------0-------5--|-0h2--2--2--2--2--2-0-------5------|
E|---------------------------3--3-|--------------------------3--3-----|

  Verso 2 (1:03)
E|--------------------------------|-----------------------------------|
B|--------------------------------|-----------------------------------|
G|--------------------------------|-----------------------------------|
D|----0--4--0--4--0--4-4/7-5-4----|-----0--4--0--4--0--4/7-5-4--------|
A|-0h2--2--2--2--2--2--0-------5--|-0h2--2--2--2--2--2-0-------5------|
E|---------------------------3--3-|--------------------------3--3-----|
   A mountain never seems...       seek

E|--------------------------------|-----------------------------------|
B|--------------------------------|-----------------------------------|
G|--------------------------------|-----------------------------------|
D|----0--4--0--4--0--4-4/7-5-4----|-----0--4--0--4--0--4/7-5-4--------|
A|-0h2--2--2--2--2--2--0-------5--|-0h2--2--2--2--2--2-0-------5------|
E|---------------------------3--3-|--------------------------3--3-----|
   The sweetest feeling...         true

Pre-Refrão (1:30)

B                          D
I could never change Just what I feel 

A9                       G9
My face will never show What is not real


  (1:37)
E|--------------------------------|
B|--------------------------------|
G|--------------------------------|
D|----0--4--0--4--0--4-4/7-5-4----|
A|-0h2--2--2--2--2--2--0-------5--|
E|---------------------------3--3-|
Refrão (1:44)

Em                G
I could have lied I'm such a fool

D                        C
My eyes could never never never, Keep their cool

Em             G
Showed her and I told her how

D                 C
She struck me but I'm fucked up now

  Solo 1:(1:58) - a base faz o pré-Refrão .
E|-----------------------------------------------------------------------|
B|-----------------------------------------------------------------------|
G|--------------------------------------11--11--11-11-9-11--11-9-11------|
D|------------7-9/11-11\9--------9-9/12----------------------------------|
A|--------7/9-------------10--10-----------------------------------------|
E|-7--10-----------------------------------------------------------------|

E|-----------------------------------------------------------------------|
B|-/10--8---------------------------------------12----/10-12-10----------|
G|--------11--7--7-9-7-9---/11-11-/11-11-/11-11----11-----------11-12p11-|
D|----------------------(9)----------------------------------------------|
A|-----------------------------------------------------------------------|
E|-----------------------------------------------------------------------|

E|-----------------------------------------------------------------------|
B|-----------------------------------------------------------------------|
G|-11h12p11-9-11-----------12-11-11h12p11-----------11-------------------|
D|---------------9-7-9-9-9----------------12-9-9-12----12-9-/9-9-7-9-/4--|
A|-----------------------------------------------------------------------|
E|-----------------------------------------------------------------------|
   
       repete a introdução na guitarra base enquanto o solo é feito:           
E|---------------------------12-/14--/17\15\14-10-------------------------|
B|---------------------12----------------------10\-----------------/7-/7-|
G|----------------9/12----------------------------/(9)\7-(7)-7-9-7-------|
D|-/5--5/9--9/12---------------------------------------------------------|
A|-----------------------------------------------------------------------|
E|-----------------------------------------------------------------------|

E|-----------------------|  
B|-----------------------|
G|-2-2-2/4---------------|
D|----------4/5\4-2p0----|
A|---------------------4-|
E|-----------------------|

  Verso 3 (2:39)
E|--------------------------------|-----------------------------------|
B|--------------------------------|-----------------------------------|
G|--------------------------------|-----------------------------------|
D|----0--4--0--4--0--4-4/7-5-4----|-----0--4--0--4--0--4/7-5-4--------|
A|-0h2--2--2--2--2--2--0-------5--|-0h2--2--2--2--2--2-0-------5------|
E|---------------------------3--3-|--------------------------3--3-----|
   But now she's gone...           stay

E|---------------------------------|----------------------------------|
B|--------------2h3p2----------(2h3p2)--------------------------------|
G|---------------------------------|----------------------------------|
D|----0--4--0--4-----4-4/7-5-4-----|-----0--4--0--4--0--4-4/7-5-4-----|
A|-0h2--2--2--2--------0-------5---|-0h2--2--2--2--2--2---0-------5---|
E|---------------------------3--3--|----------------------------3--3--|
   You see she hides...            spared

Refrão (3:06) 

Em                G
I could have lied I'm such a fool

D                        C
My eyes could never never never, Keep their cool

Em             G
Showed her and I told her how

D                 C
She struck me but I'm fucked up now

  refrão (3:20) - com o solo em cima.
E|-12------------10/12---------------------------------------|
B|---12-10/12-12-------12-10-8-10-8-10/12-10/12--10--8--8-10-|
G|-----------------------------------------------------------|
D|-----------------------------------------------------------|
A|-----------------------------------------------------------|
E|-----------------------------------------------------------|
  I could have lied...

E|-------------------------------|-------------------------5/7-10-7-10-|
B|-8-10-8------8h10p8------------|--8-10-12 10h12p10------8------------|
G|--------9(9)--------7-9-7-9-/9-|-------------------12-9--------------|
D|-------------------------------|-------------------------------------|
A|-------------------------------|-------------------------------------|
E|-------------------------------|-------------------------------------|
  I showed her...

  solo 2: (3:33) - .
E|-7---7p5---/7-/7\5---------------------------------------------------|
B|---------8--------(7)-10p8 /10\8-------------------------------------|
G|-----------------------------------11h12p11-h12b13r\11----\4-7-4-4---|
D|---------------------------------------------------------------------|
A|---------------------------------------------------------------------|
E|---------------------------------------------------------------------|

E|------------------------------------------------||
B|------------------------------------------------||
G|--------------7-------------------------/9-9-9--||
D|------7-(7)/9---9\7-5-7-5-7-5-/4\2---2-2--------||
A|-7-10-------------------------------------------||
E|------------------------------------------------||

a segunda guitarra faz os acordes várias vezes do refrão:
      Em          G
E|-7-----7-----10-------10-------10-------10\|
B|---8-----8------12-------12-------12-------| 
G|-----9-----9-------12-------12-------12----|
A|-------------------------------------------|
B|-------------------------------------------|
E|-------------------------------------------|
                                       E termina com mi menor
      D           C                            Em
E|-5-----5-----3-----3-----3-----|         |-7-|
B|---7-----7-----5-----5-----5---|         |-8-|
G|-----7-----7-----5-----5-----5-|         |-9-|
D|-------------------------------|         |-9-|
A|-------------------------------|         |-7-|
E|-------------------------------|         |---|
reproducciones 4.701
Acordes para:

    0 comentarios

    mostrar más comentarios

    ¿Conseguiste tocar?

    21 tocaron 1 aún no

    ¡Graba un vídeo tocando I Could Have Lied y envianoslo!

    00:00 / 00:00
    outros vídeos desta música
    repetir qualidade Automático
    Outros vídeos desta música
    00:00 / 00:00
    Automático
    OK