Cifra Club

Nevermind

Red Hot Chili Peppers

Cifrado: Principal (guitarra y guitarra eléctrica)
tono: B
I think this song is played with chorus and maybe a slight distortion.

Verse

-||----10----10-10----10----10-10-----||-
-||-----9-----9--9-----9-----9--9-----||-
-||--*--7-----7--7-----7-----7--7--*--||-
-||--*-----------------------------*--||-
-||-----------------------------------||-
-||-----------------------------------||-
                                                                              
Chorus

       F#9
-||-----9--9--9--9--9--9--9--9-----||-
-||-----9--9--9--9--9--9--9--9-----||-
-||--*--9--9--9--9--9--9--9--9--*--||-
-||--*--8--8--8--8--8--8--8--8--*--||-
-||-----9--9--9--9--9--9--9--9-----||-
-||--------------------------------||-
   
Guitar Solo: The x could be some weird harmonics, I don_t know.
  
-||--------------|--------------|---------------|---------------------||-
-||----12--------|--------------|---------------|---------------------||-
-||----12----12--|--------------|---------------|----x-x-x-x-x-x-x----||-
-||----12--------|----14--------|----14\--------|----x-x-x-x-x-x-x----||-
-||--------------|--------------|---------------|---------------------||-
-||--------------|--------------|---------------|---------------------||-
                                                                         
-||--------------|--------------|------------------------------------------------|-
-||----12--------|--------------|------------------------------------------------|-
-||----12--------|--------------|------------------------------------------------|-
-||----12--------|----14--------|-----------12----------------------12-----------|-
-||--------------|--------------|--12-13-14----14-13-12----12-13-14----14-13-12--|-
-||--------------|--------------|------------------------------------------------|-

-||--------------------------------------------||-
-||--------------------------------------------||-
-||--------------------------------------------||-
-||-------------12-------------14~~--14~~~~----||-
-||----12-13-14----14-13-12--------------------||-
-||--------------------------------------------||-

Bass Main Riff: Either you play the x or as I usually
do, I play the open A-String to get a nice pedal tone.

-||--------------------|--------------------||-
-||--------------------|--------------------||-
-||----x-----7---------|----x-----7---------||-
-||-------0-----5h7----|-------0-----5h7----||-
       p  S  p  S           p  S  p  S  
00:00 / 00:00
Otros videos de esta canción
Repetir
Otros videos de esta canción
Composición de Anthony Kiedis / Flea / Hillel Slovak / Jack Irons
Colaboración y revisión:
  • higor kiedis
211 exhibiciones
    • ½ Tono
    • A
    • Bb
    • B
    • C
    • Db
    • D
    • Eb
    • E
    • F
    • F#
    • G
    • Ab
  • Agregar a la lista
    00:00 / 00:00
    OK