Cifra Club

Porcelain

Red Hot Chili Peppers

Tablatura: Principal (guitarra)
Tom: A
Riff 1:
e|---------------- 
B|--2-----0----2--
G|---------------- 
D|---------------- 
A|---------------- 
E|----------------

Riff 2:
e|---------- 
B|----------
G|-------2-- 
D|--4-------
A|---------- 
E|----------


Riff 3:
e|---2--2--2--4--5--0------------
B|---------------------2----0--2-
G|-------------------------------
D|-------------------------------
A|-------------------------------
E|-------------------------------


Riff 4:
e|---2--2--2--4--5--7--5--4--2--4--5---0---- 
B|----------------------------------------2-
G|------------------------------------------ 
D|------------------------------------------ 
A|------------------------------------------ 
E|------------------------------------------

Riff 5:
e|--2------2------0----0--0-0-0-0-0-0-0-0
B|--3------3------2----0--0--------------
G|--4------2------2----1-----------------
D|--4------0------2----2-----------------
A|--2-------------0----2-----------------
E|---------------------0-----------------


Riff 6:
e|--2------2------0---0---------2---3---------0---0------- 
B|--3------3------2------2------3------3------2------2---- 
G|--4------2------2---------2---4---------4---2---------2- 
D|--4------0------2-------------4-------------2----------- 
A|--2-------------0-------------2-------------0----------- 
E|--------------------------------------------------------


Riff 7:
e|--2------2------0-------------2---2---------0---5------- 
B|--3------3------2-------------3------3------2------5---- 
G|--4------2------2-------------4---------4---2---------2- 
D|--4------0------2-------------4-------------2----------- 
A|--2-------------0-------------2-------------0----------- 
E|--------------------------------------------------------

Riff 1
D7+    A
Porcelain 

D7+               A
Are you wasting away in your skin
 
D7+                   A
Are you missing the love of your kin
Riff 2
D7+                         A
Drifting and floating and fading away 

Riff 3
D7+   A
Porcelain 

D7+                   A
Do you smell like a girl when you smile 
Riff 4
D7+                   A
Can you bear not to share with your child 

D7+                         A
Drifting and floating and fading away 

Bm D7+   A
Little lune 

Bm  A
All day 
Riff 5
Bm D7+   A       E
Little lune

Riff 1
D7+    A
Porcelain 

D7+                A
Do you carry the moon in your womb 

D7+                        A
Someone said that you're fading too soon 
Riff 2
D7+                         A
Drifting and floating and fading away 

Riff 3
D7+    A
Porcelain
 
D7+               A
Are you wasting away in your skin
Riff 4 
D7+                   A
Are you missing the love of your kin
 
D7+                       A  
Nodding and melting and fading away 

Riff 6
Bm D7+   A              
Little lune        
                   
Bm  A              
All day               
Riff 5
Bm D7+   A       E       
Little lune       

Riff 7
Bm D7+   A              
Little lune        
                   
Bm  A              
All day               
Riff 5
Bm D7+   A       E       
Little lune    

(Termina em D7+) 
reproducciones 2.364
Acordes para:
    Composição: Anthony Kiedis / Chad Smith / Flea / John Frusciante Colaboración y revision:
    • Igor Silva
    • Igor Guilherme

    0 comentarios

    mostrar más comentarios

    ¿Conseguiste tocar?

    12 tocaron 0 aún no

    ¡Graba un vídeo tocando Porcelain y envianoslo!

    00:00 / 00:00
    outros vídeos desta música
    repetir qualidade Automático
    Outros vídeos desta música
    00:00 / 00:00
    Automático
    OK