Cifra Club

Pretty Little Ditty

Red Hot Chili Peppers

Tablatura: Principal (guitarra)
Tom: C
fig. 1    repeat 4x                      trem.  2x      h  p       h  p
   h
e---------------------]     -----------  -----        -8-------------------
b-6---6-x-5--5-5-x-x--]     -5--6-8--5-  -6-5-        -8/10/8--------------
g-5---5-x-5--5-5-x-x--]     -5--5-7--5-  -5-5-        --------10--9/10/9---
d-5/7-7-x-5--5-5-x-x--]     -5--7-9--5-  -7-5-        -------------------10
a-5---5-x-3--3-3-x-x--]     -3--5-7--3-  -5-3-        ---------------------
e---------------------]     -----------  -----        ---------------------

   h  p                 fig.1  4x         solo
----------------                          ---------------------------
----------------                          ----13---15/17---15/17---15
----------------                          -14------------------------
-10/12/10-------                          ---------------------------
----------12----                          ---------------------------
----------------                          ---------------------------

---------------------------------15-------------------------
----------------------13--15/17-----15------------13--------
-14--12--14--------14---------------------14--12------------
-------------12--------------------------------------12-----
------------------------------------------------------------
------------------------------------------------------------

hope you've got strong pinkies

outro    p     p      p    p              p       p     p      p
--------7/5----------------------5/8----10/8------------------------8/10-
--------------7/5----------------5/8------------10/8----------------8/10-
----6----------------7/6--7/6----6/9--9---------------10/9---10/9---9/11-
-7-----------7-----7----7--------7/10--------10-----10-----10------10/12-
-------------------------------------------------------------------------
-------------------------------------------------------------------------

repeat this twice every time through
       p          p       p       p
[----12/10--------------------------------]
[---------------12/10---------------------]
[-11--------------------12/11---12/11-----]
[-----------12--------12-----12-----------]
[-----------------------------------------]
[-----------------------------------------]





(Fabrício Amorim)
Flw!
reproducciones 573
Acordes para:
    Composição: Red Hot Chili Peppers

    0 comentarios

    mostrar más comentarios

    ¿Conseguiste tocar?

    1 tocaron 0 aún no

    ¡Graba un vídeo tocando Pretty Little Ditty y envianoslo!

    00:00 / 00:00
    outros vídeos desta música
    repetir qualidade Automático
    Outros vídeos desta música
    00:00 / 00:00
    Automático
    OK