Cifra Club

Purple Stain

Red Hot Chili Peppers

Tablatura: Principal (guitarra)
Tom: C
Intro e Verso:
|------------------------------|
|------------------------------|
|------------------------------|
|----------5-5-5-----5-5-5-----|
|------------------------------|
|-12\\\0-----------------------|


Pre-Refrão:
|-----------|
|-----------|
|---5-7--7--| X4
|-7---------|
|-----------|
|-----------|


Refrão:
|-----------8-8--8-8-|--------------------------------|
|-----------8-8--8-8-|--------------------------------|
|--------------------|---5----------------------------|2 Vezes o conjunto todo
|-----5--7-----------|------7--5----------------------|
|--7-----------------|--------------------------------|
|--------------------|--------------------------------|



Pausa:
|----------------|
|----------------|
|----------------|
|----------------|
|----------------|
|--12\\\0--------|


Interlúdio: 
E|------------------------------------
B|---------------8/-------------------
G|---------------7/-------------------
D|--5------------6/-----------5-------
A|----7-7-7-5-7--7/---5-7-7-7---7-7---
E|------------------------------------



Outro :
|---------------------------------------------|
|-8---7---8---7---8---3---1---3---8---7---10--|
|-9---7---9---7---9---4---2---4---9---7---9---|
|---------------------------------------------|
|---------------------------------------------|
|---------------------------------------------|


|------------------------------------12-------|
|-8--11---12---8------10---11---12---12-------|
|-9--10---12---9------9----10---12---12-------|
|---------------------------------------------|
|---------------------------------------------|
|---------------------------------------------|
reproducciones 1.090
Acordes para:
    Composição: Anthony Kiedis / Chad Smith / Flea / John Frusciante Colaboración y revision:
    • Lucas
    • katryson
    • Bruno Secaf

    0 comentarios

    mostrar más comentarios

    ¿Conseguiste tocar?

    7 tocaron 0 aún no

    ¡Graba un vídeo tocando Purple Stain y envianoslo!

    00:00 / 00:00
    outros vídeos desta música
    repetir qualidade Automático
    Outros vídeos desta música
    00:00 / 00:00
    Automático
    OK