Cifra Club

Purple Stain

Red Hot Chili Peppers

Cifrado: Principal (guitarra y guitarra eléctrica)
tono: C
[Intro]

E|------------------------------|
B|------------------------------|
G|------------------------------|
D|----------5-5-5-----5-5-5-----|
A|------------------------------|
E|-12\\\0-----------------------|

[Pre-Refrão]

E|-----------|
B|-----------|
G|-----------| X4
D|---5-7--7--|
A|-7---------|
E|-----------|

[Refrão]

E|-----------8-8--8-8-|--------------------------------|
B|-----------8-8--8-8-|--------------------------------|
G|--------------------|---5----------------------------| 2 Vezes o conjunto todo
D|-----5--7-----------|------7--5----------------------|
A|--7-----------------|--------------------------------|
E|--------------------|--------------------------------|

[Pausa]

E|----------------|
B|----------------|
G|----------------|
D|----------------|
A|----------------|
E|--12\\\0--------|

[Interlúdio]

E|------------------------------------|
B|---------------8/-------------------|
G|---------------7/-------------------|
D|--5------------6/-----------5-------|
A|----7-7-7-5-7--7/---5-7-7-7---7-7---|
E|------------------------------------|

[Outro]

E|---------------------------------------------|
B|-8---7---8---7---8---3---1---3---8---7---10--|
G|-9---7---9---7---9---4---2---4---9---7---9---|
D|---------------------------------------------|
A|---------------------------------------------|
E|---------------------------------------------|

E|------------------------------------12-------|
B|-8--11---12---8------10---11---12---12-------|
G|-9--10---12---9------9----10---12---12-------|
D|---------------------------------------------|
A|---------------------------------------------|
E|---------------------------------------------|
00:00 / 00:00
Otros videos de esta canción
Repetir
Otros videos de esta canción
Composición de Anthony Kiedis / Chad Smith / Flea / John Frusciante
Colaboración y revisión:
1.516 exhibiciones
    • ½ Tono
    • A
    • Bb
    • B
    • C
    • Db
    • D
    • Eb
    • E
    • F
    • F#
    • G
    • Ab
  • Agregar a la lista
    00:00 / 00:00
    OK