Cifra Club

Scar Tissue

Red Hot Chili Peppers

Tablatura: Principal (guitarra)
reproducciones 57.539
Tono: F
Intro: F  Dm

    F                         Dm
E|-----------------------------------------------------|
B|----10---10---10---10--5--5/6--6----6---6---6\5------|
G|-----------------------------------------------------|
D|-----------------------------------------------------|
A|-8-----8----8----8-----3--3/5-----5---5---5-----3----|
E|-----------------------------------------------------|

    F                           Dm
E|-----------------------------------------------------|
B|----10---10---10---10---8--5/6----8p6-8p6------------|
G|-----------------------------------------------------|
D|-----------------------------------------------------|
A|-8-----8----8----8----x----3/5-----------------------|
E|-----------------------------------------------------|


Primeira Parte:

    F                          Dm
E|-----------------------------------------------------|
B|----10---10---10---10--5--5/6--6----6---6---6\5------|
G|-----------------------------------------------------|
D|-----------------------------------------------------|
A|-8-----8----8----8-----3--3/5-----5---5---5-----3----|
E|-----------------------------------------------------|

    F                          Dm
E|-------------------8---------------------------------|
B|----10---10---10------10-8--8/10--10---10--8--6--5---|
G|-----------------------------------------------------|
D|----------------------------0--------0---------------|
A|-8-----8----8----8-----------------------------------|
E|-----------------------------------------------------|

F                                   Dm
  Scar tissue that I wished you saw
                             F
Sarcastic Mister Know-it-All
                                    Dm
Close your eyes and I'll kiss you 'cause

With the birds I'll share


Refrão:

F
  With the birds I'll share
      C   Dm       C  F
This lo__nely view

With the birds I'll share
      C   Dm       C
This lo__nely view


Segunda Parte:

    F                          Dm
E|-----------------------------------------------------|
B|----10---10---10---10--5--5/6--6----6---6---6\5------|
G|-----------------------------------------------------|
D|-----------------------------------------------------|
A|-8-----8----8----8-----3--3/5-----5---5---5-----3----|
E|-----------------------------------------------------|

    F                          Dm
E|-------------------10--8---------------13--12--10--8-|
B|----10---10---10----------8-8/10--10-----------------|
G|-----------------------------------------------------|
D|----------------------------0--------0---------------|
A|-8-----8----8----8-----------------------------------|
E|-----------------------------------------------------|

F
  Push me up against the wall
 Dm                                  F
Young Kentucky Girl in a push-up bra

Fallin' all over myself
    Dm
To lick your heart and taste you health 'cause


Refrão:

F
  With the birds I'll share
      C   Dm       C  F
This lo__nely view

With the birds I'll share
      C   Dm       C  F
This lo__nely view

With the birds I'll share
      C   Dm
This lo__nely view


Primeiro Solo: Dm  C  Dm

E|-----------------------------------------------------|
B|-13\--10~~\----10\--8~~--8/--10~~----10/-12/-13~~----|
G|-----------------------------------------------------|
D|-----------------------------------------------------|
A|-----------------------------------------------------|
E|-----------------------------------------------------|


Terceira Parte:

    F                          Dm
E|-----------------------------------------------------|
B|----10---10---10---10--5--5/6--6----6---6-8p6-8p6----|
G|-----------------------------------------------------|
D|-----------------------------------------------------|
A|-8-----8----8----8-----3--3/5-----5---5--------------|
E|-----------------------------------------------------|

    F                          Dm
E|-------------------8---------------------------------|
B|----10---10---10------10--8-8/10--10---12--13--12--10|
G|-----------------------------------------------------|
D|----------------------------0--------0---------------|
A|-8-----8----8----8-----------------------------------|
E|-----------------------------------------------------|

F                                Dm
  Blood loss in a bathroom stall
                                   F
Southern girl with a scarlet drawl
                                  Dm
Wave good-bye to ma and pa 'cause

With the birds I'll share


Refrão:

F
  With the birds I'll share
      C   Dm       C  F
This lo__nely view

With the birds I'll share
      C   Dm       C
This lo__nely view


Quarta Parte:

    F                          Dm
E|-----------------------------------------------------|
B|----10---10---10---10--5--5/6--6----6---6---6\5------|
G|-----------------------------------------------------|
D|-----------------------------------------------------|
A|-8-----8----8----8-----3--3/5-----5---5---5-----3----|
E|-----------------------------------------------------|

    F                          Dm
E|-------------------8------------------12--10--8------|
B|----10---10---10------10-8--8/10-10-------------10---|
G|-----------------------------------------------------|
D|----------------------------0-------0----------------|
A|-8-----8----8----8-----------------------------------|
E|-----------------------------------------------------|

F
  Saw spoken with a broken jaw
  Dm                             F
Step outside but not to brawl in

Autumn's sweet we call it fall
      Dm
I'll make it to the moon if I have to crawl and


Refrão:

F
  With the birds I'll share
      C   Dm       C  F
This lo__nely view

With the birds I'll share
      C   Dm       C  F
This lo__nely view

With the birds I'll share
      C   Dm
This lo__nely view


Segundo Solo: D5  C5  D5

E|-----------------------------------------------------|
B|-13/15~~--15\-13\-10~~---10\-8~~--13~~\-10~~---------|
G|-----------------------------------------------------|
D|-----------------------------------------------------|
A|-----------------------------------------------------|
E|-----------------------------------------------------|

E|-----------------------------------------------------|
B|-13/15~~--17-13\-10~~--10/13\10-8~~--13\-10~~--------|
G|-----------------------------------------------------|
D|-----------------------------------------------------|
A|-----------------------------------------------------|
E|-----------------------------------------------------|

E|-10/--12/--13~~--------------------------------------|
B|-----------------------------------------------------|
G|-----------------------------------------------------|
D|-----------------------------------------------------|
A|-----------------------------------------------------|
E|-----------------------------------------------------|


Quinta Parte:

    F                          Dm
E|-----------------------------------------------------|
B|----10---10---10---10--5--5/6--10---10---10---10\8---|
G|-----------------------------------------------------|
D|-----------------------------------------------------|
A|-8-----8----8----8-----3--3/5-----8----8----8--------|
E|-----------------------------------------------------|

    F                           Dm
E|----------------------8------------------------------|
B|-8/10--10---10---10------10-8--8/10--10---10--8--6--5|
G|-----------------------------------------------------|
D|-------------------------------0--------0------------|
A|----------8----8----8--------------------------------|
E|-----------------------------------------------------|

F                                   Dm
  Scar tissue that I wished you saw
                             F
Sarcastic mister know it all
                                         Dm
Close your eyes and I'll kiss you 'cause

With the birds I'll share


Refrão:

F
  With the birds I'll share
      C   Dm       C  F
This lo__nely view

With the birds I'll share
      C   Dm       C  F
This lo__nely view

With the birds I'll share
      C   Dm
This lo__nely view


Terceiro Solo: D5  C5  D5

E|-/17~~--17\-15~~--15/17\-12~~------------------------|
B|--------------------------------17/18\-15~~\---------|
G|-----------------------------------------------------|
D|-----------------------------------------------------|
A|-----------------------------------------------------|
E|-----------------------------------------------------|

E|-----------------------------------------------------|
B|-13/15-15\13-13/15-15~~--15\-13\10--10/13\--8~~------|
G|-----------------------------------------------------|
D|-----------------------------------------------------|
A|-----------------------------------------------------|
E|-----------------------------------------------------|

E|-----------------------------------------------------|
B|-10/13\-10~~-----------------------------------------|
G|--------------7/9\7--/14~~-14~--14~--14~---7/9\7-----|
D|-----------------------------------------------------|
A|-----------------------------------------------------|
E|-----------------------------------------------------|

E|-----------------------------------------------------|
B|-----------------------------------------------------|
G|-7/9\-5~~--5/7--2~~----------------------------------|
D|-----------------------------------------------------|
A|-----------------------------------------------------|
E|-----------------------------------------------------|

E|-----------------------------------------------------|
B|-8/10~~--18\17--17--13~--13/15\13-10~---10/13\8/10~~-|
G|-----------------------------------------------------|
D|-----------------------------------------------------|
A|-----------------------------------------------------|
E|-----------------------------------------------------|

0 comentarios

    mostrar más comentarios

    ¿Conseguiste tocar?

    293tocaron7aún no

    ¡Graba un vídeo tocando Scar Tissue y envianoslo!

    00:00 / 00:00
    outros vídeos desta música
    repetirqualidadeAutomático
    Outro vídeos desta música
      00:00 / 00:00
      Capítulos
      • Tocando a música
      • Apresentação / Equipamentos
      • Acordes da música
      • Tocando Introdução
      • Riff Introdução
      • Dicas Primeira Parte
      • Tocando Primeira Parte
      • Riff Primeira Parte
      • Acordes Refrão
      • Tocando Refrão
      • Ritmo do Refrão
      • Dicas Segunda Parte
      • Tocando Segunda Parte
      • Riff Segunda Parte
      • Dicas Solo
      • Tocando Solo 1
      • TAB - Solo 1
      • Dicas Terceira Parte
      • Tocando Terceira Parte
      • Riff Terceira Parte
      • Dicas Quarta Parte
      • Tocando Quarta Parte
      • Riff Quarta Parte
      • Dicas Solo 2
      • Tocando Solo 2
      • TAB - Solo 2
      • Dicas Quinta Parte - Final
      • Tocando Quinta Parte - Final
      • Riff Quinta Parte
      • TAB - Solo 3
      • Encerramento
      OK