Cifra Club

Storm In A Teacup

Red Hot Chili Peppers

Tab de bajo: Principal
(Intro)
G|-12-12-12-12-12-12-12-12-12-12-12-12-12-12-12-12--| *Come in easily
D|--------------------------------------------------|  hitting the string
A|--------------------------------------------------|  then eventually
E|--------------------------------------------------|  hit harder*

(Verse Part 1)
G|---------------------5-3--------------|
D|-------5----5---5---------------------|
A|--------------------------------------|
E|--3-3----3----3---3-------------------|

(Verse Part 2)
G|------------------------|
D|------------------------|
A|------------------3-1---|
E|--3-1-3--3-3-3-1--------|

(Chorus Part 1)
G|----------------------------------------|
D|----------------------------------------|
A|--3-3-3-3--1-1-1-1----------------------|
E|--------------------1-1-1-1--3-3-3-3----|

(Chorus Part 2)
G|----------------------------------------------------|
D|----------------------------------------------------|
A|--3-3-3-3--1-1-1-1--5-5-5-5-5-5-5-5-5-5-5-5-8-8-8-8-|
E|----------------------------------------------------|

(Chorus Part 3)
G|----------------------------------------------------------|
D|----------------------------------------------------------|
A|----------------------------------------------------------|
E|--3-3-3-1--3-3-3-1--3-3-3-1--3-3-3-1--3-3-3-1--3-3-3-1--3-|

(Bridge)
G|-------------------------------------------------------------------------|
D|------------------------------------------10----------------8------------|
A|--10-----8---------------------8--8h10-------12-10-8---8-10---10-8-------|
E|---------------10-----8---8h10--10--------------------------------10----8|

(Outro)                                                  End On
G|--------------------------------------| *Repeat 2x*  G|---|
D|--------------------------------------|              D|---|
A|--------------------------------------|              A|---|
E|--3-3-3-1--3-3-3-1--3-3-3-1--3-3-3-1--|              E|-3-|
Composição de Anthony Kiedis / Chad Smith / Flea / John Frusciante
Colaboración y revision:
  • Rafael Alcantara
38 reproducciones

0 comentarios

Ver todos os comentários

¿Conseguiste tocar?

4 Tocaram 0 Ainda não

Grave um vídeo tocando Storm In A Teacup e nos envie!

00:00 / 00:00
outros vídeos desta música
repetir qualidade Automático
Outros vídeos desta música
00:00 / 00:00
Automático
OK