Cifra Club

The Zephyr Song

Red Hot Chili Peppers

Tablatura: Versão 3 (guitarra)
Tom: G
Intro:

|--------------------------------------|-------------------------------------------|
|--------------------------------------|------------------------------5------------|
|------12---------10-------4-------5---|--------9-------7------4------5------------|
|---10----------9--------5-------7-----|-----10-------9------5------7--------------|
|12----------10--------7-------8-------|--12-------10------7------8----------------|
|--------------------------------------|-------------------------------------------| 

|---------------------------------------------------------------------------------|
|---------------------------------------------------------------------------------|
|------9----12-10-9---------7---10-9-7-------4---7-5-4--------5-7/9-7-------------|
|---10---10---------------9---9------------5---5------------7----------10-9-10----|
|12--------------------10----------------7----------------8-----------------------|
|---------------------------------------------------------------------------------| 

|---------------------------------------------------------------------------------|
|--------------10---------------------------------5-------------------------------|
|------9----12----9---------7---10-9-7------4---7---4-----------4-5------4-5------|
|---10---10---------------9---9-----------5---5-----------------------------------|
|12--------------------10---------------7--------------------8-------8------------|
|---------------------------------------------------------------------------------|

Refrão:                                   Riff Após o 2ºRefrão:

|---------------------------------|------------------------------------------------|
|-7-------3-------5---------------|77777777777777--3333333--555--3-5---------------|
|-7-------4-------6---------------|77777777777777--4444444--666--4-6---------------|
|-7-------5-------7---------------|77777777777777--5555555--777--5-7---------------|
|-5-------5-------7---------------|55555555555555--5555555--777--5-7---------------|
|---------------------------------|------------------------------------------------| 

solo:

|12-10-12-12-12-10-12-------10-8-10-10-10-8-10-12---------------------------------|
|---------------------12-10------------------------12-10--------------------------|
|---------------------------------------------------------------------------------|
|---------------------------------------------------------------------------------|
|---------------------------------------------------------------------------------|
|---------------------------------------------------------------------------------|  

Riff após o solo:

|---------------------------------------------------------------------------------|
|12-12-12-12-12-12-12---10-10-10-10-10-10-10--------------------------------------|
|9--9--9--9--9--9--9----7--7--7--7--7--7--7----4-4-4-4-4-4-4---5-5-5-5-5-5-5------|
|10-10-10-10-10-10-10---9--9--9--9--9--9--9----5-5-5-5-5-5-5---7-7-7-7-7-7-7------|
|12-12-12-12-12-12-12---10-10-10-10-10-10-10---7-7-7-7-7-7-7---8-8-8-8-8-8-8------|
|---------------------------------------------------------------------------------| 

Riff Final:

|------14--------14-------14-------14--------14-----|
|---15----15--------15-------15-------15------------|
|14----------14--------14-------14-------14---------|
|---------------------------------------------------|
|---------------------------------------------------|
|---------------------------------------------------| 


|------15--------15------------------17--------17------|
|---15----15---------15-----------17----17---------17--|
|16----------16----------16-16/18----------18----------|
|------------------------------------------------------|
|------------------------------------------------------|
|------------------------------------------------------| 

|------14-------14---------15-------14--------14------|
|---15----15--------15--------15-------15-------------|
|14----------14--------14--------14-------14----------|
|-----------------------------------------------------|
|-----------------------------------------------------|
|-----------------------------------------------------|

|------15--------15----------------17-------17--------|
|---15----15--------15----------17----17-------17-----|
|16----------16--------16-16/18----------18-----------|
|-----------------------------------------------------|
|-----------------------------------------------------|
|-----------------------------------------------------|

|------14-------14--------15-------17--------15-------|
|---15----15-------15--------15-------15--------------|
|14----------14-------14--------14-------14-----------|
|-----------------------------------------------------|
|-----------------------------------------------------|
|-----------------------------------------------------| 

|------15-------15-----------------17-------17--------|
|---15----15-------15-----------17----17--------17----|
|16----------16--------16-16/18----------18-----------|
|-----------------------------------------------------|
|-----------------------------------------------------|
|-----------------------------------------------------| 

|------14-------14--------15-------14---------14------|
|---15----15-------15--------15-------15--------------|
|14----------14-------14--------14--------14----------|
|-----------------------------------------------------|
|-----------------------------------------------------|
|-----------------------------------------------------| 

|------15-------15-------------------------17---------|
|---15----15-------15-------17---12--14----15---------|
|16----------16-------16----18---12--14----14---------|
|-----------------------------------------------------|
|-----------------------------------------------------|
|-----------------------------------------------------|
reproducciones 64
Acordes para:
    Composição: Anthony Kiedis / Chad Smith / Flea / John Frusciante Colaboración y revision:
    • kedener douglas

    0 comentarios

    mostrar más comentarios

    ¿Conseguiste tocar?

    0 tocaron 0 aún no

    ¡Graba un vídeo tocando The Zephyr Song y envianoslo!

    00:00 / 00:00
    outros vídeos desta música
    repetir qualidade Automático
    Outros vídeos desta música
    00:00 / 00:00
    Automático
    Capítulos
    • Tocando a música
    • Dicas Iniciais / Equipamentos
    • Acordes da Introdução
    • Tocando Introdução
    • Ensinando Introdução
    • Dicas Primeira Parte
    • Tocando Primeira Parte
    • Ensinando Primeira Parte - Primeira Estrofe
    • Ensinando Primeira Parte - Segunda Estrofe
    • Acordes Refrão
    • Tocando Refrão
    • Ensinando Refrão
    • Dicas Segunda Parte e Segundo Refrão
    • Tocando Segunda Parte e Segundo Refrão
    • Ensinando Segunda Parte
    • Ensinando Segundo Refrão
    • Dicas do Solo
    • Tocando Solo
    • Ensinando Solo - Parte 1 de 2
    • Ensinando Solo - Parte 2 de 2
    • Acordes Terceira Parte
    • Tocando Terceira Parte
    • Acordes Terceiro Refrão - Final
    • Tocando Terceiro Refrão - Final
    • Ensinando Final - Parte 1 de 5
    • Ensinando Final - Parte 2 de 5
    • Ensinando Final - Parte 3 de 5
    • Ensinando Final - Parte 4 de 5
    • Ensinando Final - Parte 5 de 5
    • Encerramento
    • Ficha técnica
    OK