Cifra Club

Aprenda

Under The Bridge

Red Hot Chili Peppers

Tablatura: Versão 5 (guitarra)
tono: C
Linha de Baixo fácil, as notas tenho certeza que são essas mas as oitavas não garanto pois tirei no violão, quem tocar 
no baixo e ver que alguma oitava ta errada pode corrigir. Abraço e BOM SOM PRA VCS GALERA !!!

Intro

Somente a guitarra

Verso 1 

somente a guitarra

Refrão 1

G|-----------------------------|
D|---------9-------9-----------|
A|-----7-7---7-------7-9---9-9-|
E|-2-----------9-7-------------|

G|-------------------------------------|
D|---------9-------9-------------------|
A|-----7-7---7-------7-9---9h11p9h11p9-|
E|-2-----------9-7---------------------|

G|-----------------------------|
D|---------9-------9-----------|
A|-----7-7---7-------7-9---9-9-|
E|-2-----------9-7-------------|

G|-----------------------------|
D|---------9-------9-----------|
A|-----7-7---7-------7-9---9-9-|
E|-2-----------9-7-------------|

Verso 2

G|----------------|
D|----------------|
A|-----2----------|
E|-0----------4-5-|

G|------------------|
D|------------------|
A|-----2------4-----|
E|-0------------5-5-|

Depois q o Kiedis cantar "Together we cry" toque isso:

G|----|
D|----|
A|-/7-|
E|----|

Refrão 2

Praticamente a mesma coisa, com apenas alguns toques diferentes

G|------------------------------------|
D|---------9-------9------------------|
A|-----7-7---7-------7-9---9h11p9-8-9-|
E|-2-----------9-7--------------------|

G|------------------------------|
D|---------9-------9------------|
A|-----7-7---7-------7-9\-------|
E|-2-----------9-7----------2-2-|

G|-----------------------------|
D|---------9-------9-----------|
A|-----7-7---7-------7-9---9-9-|
E|-2-----------9-7-------------|

G|-----------------------------|
D|---------9-------9-----------|
A|-----7-7---7-------7-9---9-9-|
E|-2-----------9-7-------------|

Outro 1

Essa é a parte do "yeah yeah oh no..."

G|---9------------------------------------------|
D|-------10-------------12-------------10-------|
A|-0---0----12-10-12-10----10-8--10h12----12-10-|
E|----------------------------------------------|

G|----9-------9------------------------------------|
D|----------------------12-------------10----------|
A|-0-----0-0-----0-0-10----10-8--10h12----12p10-12-|
E|-------------------------------------------------|

G|---9-------------------------------------------|
D|-------10-------------12-------------10--------|
A|-0---0----12-10-12-10----10-8--10h12----12-10\-|
E|-----------------------------------------------|

G|-----------------------------------------------------------------|
D|-----------------------------------------------------------------|
A|-----------------------------------------------------------------|
E|-1-1-1-1-1-1-1-1-1-1-1-1-1-1-1-1-0-0-0-0-0-0-0-0/3-3-3-3-3-3-3-3-|

Outro 2 

Essa é a parte do "under the bridge downtown"
Tocada 4 Vezes

G|---9------------------------------------------|
D|-------10-------------12-------------10-------|
A|-0---0----12-10-12-10----10-8--10h12----12-10-|
E|----------------------------------------------|

G|----9-------9------------------------------------|
D|----------------------12-------------10----------|
A|-0-----0-0-----0-0-10----10-8--10h12----12p10-12-|
E|-------------------------------------------------|

Final

G|---9------------------------------------------|
D|-------10-------------12-------------10-------|
A|-0---0----12-10-12-10----10-8--10h12----12-10-|
E|----------------------------------------------|

G|----9-------9--------------------------------------|
D|----------------------12-------------10h12p10------|
A|-0-----0-0-----0-0-10----10-8--10h12----------12-10|
E|---------------------------------------------------|

G|---9------------------------------------------|
D|-------10-------------12-------------10-------|
A|-0---0----12-10-12-10----10-8--10h12----12-10-|
E|----------------------------------------------|

G|----9-------9------------------------------|
D|----------------------12-------------------|
A|-0-----0-0-----0-0-10----10-8------------0-|
E|-------------------------------------------|

Fim.................................
Composição de Anthony Kiedis / Chad Smith / Flea / John Frusciante
Colaboración y revision:
  • Eloy Nogueira
134 reproducciones
  • Simplificar cifra
    • ½ Tono
    • A
    • Bb
    • B
    • C
    • Db
    • D
    • Eb
    • E
    • F
    • F#
    • G
    • Ab
  • Adicionar à lista

    0 comentarios

    Ver todos os comentários
    00:00 / 00:00
    outros vídeos desta música
    repetir qualidade Automático
    Outros vídeos desta música
    00:00 / 00:00
    Automático
    Capítulos
    • Início
    • Tocando a música
    • Acordes da Introdução
    • Tocando Introdução
    • Ensinando Introdução
    • Acordes da Primeira Parte
    • Tocando Primeira Parte
    • Ensinando Primeira Parte
    • Acordes do Refrão
    • Tocando Refrão
    • Ensinando Ritmo do Refrão
    • Ensinando Passagem
    • Tocando Segunda Parte
    • Ensinando Segunda Parte
    • Acordes da Terceira Parte
    • Tocando Terceira Parte
    • Ensinando Ritmo da Terceira Parte
    • Encerramento
    OK