Cifra Club

Wet Sand

Red Hot Chili Peppers

Tablatura: Principal (guitarra)
Tom: G
[Intro]
          G      D           Em            Bm
E|--------3------2-----------0-------------2-------------------------------------|
B|--------0------3-----------0-------------3-------------------------------------|
G|--------0------2-----------0-------------4-------------------------------------|
D|--------0------0---0-------2-------------4-------------------------------------|
A|--------2------------0h2---2-----5b--2---2-----2-5-2---------------------------|
E|--------3------------------0-------------------------5-2-3---------------------|
   
          G                  D                   Em            Bm
E|--------3------------------2-------------------0-------------2-----------------|
B|--------0------------------3-------------------0-------------3-----------------|
G|--------0------------------2-------------------0-------------4-----------------|
D|--------0---0h2p0-----0----0--0h2p0------------2-------------4-----------------|
A|--------2---------2p0---------------2p0--0h2---2----5b--2----2--------0-2------|
E|--------3--------------------------------------0------------------0-3-----3----|
   
          G                  D                   Em                 Bm
E|--------3------------------2-------------------0------------------2------------|
B|--------0------------------3-------------------0------------------3------------|
G|--------0------------------2-------------------0------------------4------------|
D|--------0------------------0-------------------2------------------4------------|
A|--------2-------0-2-5-0--------0-2-4-5-2-------2---5/3-2p0-0h2----2------------|
E|--------3----3---------------------------------0-------------------------------|
   
 G
My shadow side, so amplified
 D
Keeps coming back dissatisfied
Em                        Bm
Elementary son, but it's so
 G
My love affair with everywhere
 D
Was innocent why do you care
 Em
Someone stop the car,
         Bm
Time to go
G      D                Em      Bm
      Your the best I know

 G
My sunny side is up and died
D
I'm betting there when we collide
  Em                            Bm
The universe will shift into a low
  G
The travesties that we have seen
  D
Treating me like Benzedrine
Em                          Bm
Automatic laughter from a pro

               Em                  G                   D            G6
E|-------------7--------------------------------------X-------------12-----------|  
B|-------------8-------------------12-----------------10------------12-----------|   
G|-------------9-------------------12-----------------11------------12-----------| 
D|-------------9-------------------12-----------------12-------------------------|   
A|-------------7-------------------10-----------------12-------------------------|  
E|----------------------------------------------------10-------------------------|
   
              Em                  G                  D
E|----------------------------------------------------X--------------------------|  
B|-------------8-------------------12-----------------10-------------------------|   
G|-------------9-------------------12-----------------11-------------------------|   
D|-------------9-------------------12-----------------12-------------------------|   
A|-------------7-------------------10-----------------12-------------------------|  
E|----------------------------------------------------10-------------------------| 
   
 Em        G           D           G6
My what a good day for a, walk outside
Em                   G                       D                        G6
I'd like to get to know you a little better babe God knows that i really tried
 Em        G           D           G6
My what a good day for a take out bride
Em                  G                    D
I'd like to say we did it for the better of

G
I saw you there so unaware
  D
Those humming birds all in your hair
Em                      Bm
Elementry so, but it's so
  G
The disrepair of Norma Jean
 D
Could not compare to you're routine
 Em                            Bm
Ballorama beauty going toe to toe

 Em         G            D          G6
My what a good day just to let it slide
Em                  G                    D
I'd like to say we did it for the better of

E                          C        E
I thought about it and I brought it out
E                     C       E
I'm motivated by the lack of doubt
E                        C     E
I'm consecrated but i'm not devout
 E
Mother, the father, the daughter

         G               D                   Em              Bm
E|-----3---------------2-------------------0---------------2---------------------|  
B|-----0---------------3-------------------0---------------3---------------------|   
G|-----0---------------2-------------------0---------------4---------------------|   
D|-----0--0h2p0-----0--0--0h2p0------------2---------------4---------------------|   
A|--2--2--------2p0--------------2p0-0h2---2--5/3-2p0-0h2--2---2-5-2-------------|  
E|--3--3-----------------------------------0-------------------------5-2-3-------|
   
         G                  D                   Em                 Bm
E|-----3------------------2-------------------0------------------2---------------|
B|-----0------------------3-------------------0------------------3---------------|
G|-----0------------------2-------------------0------------------4---------------|   
D|-----0------------------0-------------------2-------2h4--------4---------------|
A|-----2-------0-2-5-0--------0-2-4-5-2-------2---0h2-----2------2------0-2------|
E|-----3----3---------------------------------0---------------------0-3-----3----|
   
         G                  D                   Em                 Bm
E|-----3------------------2-------------------0------------------2---------------|
B|-----0------------------3-------------------0------------------3---------------|
G|-----0------------------2-------------------0------------------4---------------|   
D|-----0------------------0-------------------2---2h4p2p0--------4---------------|
A|-----2-------0-2-5-0--------0-2-4-5-2-------2------------2-----2---------------|
E|-----3----3---------------------------------0----------------------------------|
   

 G          (Bridge Parte 2)
Right on the verge is one more dose
D          (Bridge Parte 2)
I'm travelling from coast to coast
 Em         (Bridge Parte 2)         Bm
My theory isn't perfect but it's close
G          (Bridge Parte 3)
I'm almost there, why should i care
 D          (Bridge Parte 3)
My heart is hurting when i share
 Em         (Bridge Parte 3) Bm
Someone opened up, let it show

 Em         G           D          G6
My, what a good day for a walk outside
Em                  G                    D
I like to think we did it for the better of

E                          C         E
I thought about it and I brought it out
E                     C       E
I'm motivated by the lack of doubt
E                        C      E
I concentrated but i'm looking out
  E
The Mother, the father, the daughter


[Final]

E|-----0--------0--------0-----2--------2--------2-------4--------4--------4-----4--------4--------4-------------|
B|--------0--------0--------------2--------2---------------4--------4--------------4--------4--------------------|
G|--1--------1--------1-----3--------3--------3-------4--------4--------4-----4--------4--------4----------------| 
D|---------------------------------------------------------------------------------------------------------------|   
A|---------------------------------------------------------------------------------------------------------------|  
E|---------------------------------------------------------------------------------------------------------------|
  
E|----2--------2--------2-------4--------4--------4-----4--------4--------4-----3-----3-----3----3------3-----3--|
B|-------2--------2---------------4--------4--------------4--------4--------------2-----2----------2------2------|
G|-3--------3--------3-------4--------4--------4-----4--------4--------4------3-----3-----3----3-----3------3----|
D|---------------------------------------------------------------------------------------------------------------|
A|---------------------------------------------------------------------------------------------------------------|
E|---------------------------------------------------------------------------------------------------------------|
   
Final (Guitarra 1)

        E        F#       G#m
E|----0--0-0---2--2-2---4--4-4---4--4-4-------------|
B|----0--0-0---2--2-2---4--4-4---4--4-4-------------|
G|----1--1-1---3--3-3---4--4-4---4--4-4-------------|
D|----2--2-2---4--4-4---6--6-6---6--6-6-------------|
A|----2--2-2---4--4-4---6--6-6---6--6-6-------------| 
E|----0--0-0---2--2-2---4--4-4---4--4-4-------------|           
                                                       
E|----0-0--0---2-2--2---4-4-4-4-4-4-4-4-4-----------|
B|----0-0--0---2-2--2---4-4-4-4-4-4-4-4-4-----------| 
G|----1-1--1---3-3--3---4-4-4-4-4-4-4-4-4-----------|
D|----2-2--2---4-4--4---6-6-6-6-6-6-6-6-6-----------|
A|----2-2--2---4-4--4---6-6-6-6-6-6-6-6-6-----------|
E|----0-0--0---2-2--2---4-4-4-4-4-4-4-4-4-----------|
   
        E        F#       G#m         F#       E
E|----0-0--0---2-2--2---4-4-4-4-4---2-2--2---0-0--0-|
B|----0-0--0---2-2--2---4-4-4-4-4---2-2--2---0-0--0-|
G|----1-1--1---3-3--3---4-4-4-4-4---3-3--3---1-1--1-|
D|----2-2--2---4-4--4---6-6-6-6-6---4-4--4---2-2--2-|
A|----2-2--2---4-4--4---6-6-6-6-6---4-4--4---2-2--2-| 
E|----0-0--0---2-2--2---4-4-4-4-4---2-2--2---0-0--0-|
                                                          
E|----0--0-0---2--2-2---4--4-4------2--2-2---0-0--0-|
B|----0--0-0---2--2-2---4--4-4------2--2-2---0-0--0-| 
G|----1--1-1---3--3-3---4--4-4------3--3-3---1-1--1-|
D|----2--2-2---4--4-4---6--6-6------4--4-4---2-2--2-|
A|----2--2-2---4--4-4---6--6-6------4--4-4---2-2--2-|
E|----0--0-0---2--2-2---4--4-4------2--2-2---0-0--0-|
   

Final (Guitarra 2)

E|----x-x-x-x---x--x--x--x---x--x--x--x--x--x--x--x-------------|  
B|----9-9-9-9---11-11-11-11--12-12-12-12-12-12-12-12------------| 
G|----9-9-9-9---11-11-11-11--13-13-13-13-13-13-13-13------------|
D|----9-9-9-9---11-11-11-11--13-13-13-13-13-13-13-13------------|
A|----7-7-7-7---9--9--9--9---11-11-11-11-11-11-11-11------------|
E|--------------------------------------------------------------|

E|----x-x-x-x---x--x--x--x---x--x--x--x----x--x--x--x---x-x-x-x-|  
B|----9-9-9-9---11-11-11-11--12-12-12-12---11-11-11-11--9-9-9-9-| 
G|----9-9-9-9---11-11-11-11--13-13-13-13---11-11-11-11--9-9-9-9-|
D|----9-9-9-9---11-11-11-11--13-13-13-13---11-11-11-11--9-9-9-9-|
A|----7-7-7-7---9--9--9--9---11-11-11-11---9--9--9--9---7-7-7-7-|
E|--------------------------------------------------------------|
   

 E              F#         G#m
Yeah you don't form in the wet sand
E          F#     G#m
You don't form at all
 E              F#          G#m     F# E    Eb
Woah you don't form in the wet sand, I do, yeah
 E         F#          G#m
You don't form in the wet sand
 E         F#     G#m
You don't form at all
 E              F#          G#m     F#  E
Woah you don't form in the wet sand, I do, yeah!


[Solo]

E|-----------------19-----19-------------------------------------------------------------------------------------------------|
B|-19b-19b-19b-19b----19b----19b-19b-19-19b-16-16-16-16-------------------------------16------21b--19h21-21-21-21-21-21------|
G|-------------------------------------------------------18b18p16--18--16--16--15h16------16---------------------------------|
D|---------------------------------------------------------------------------------------------------------------------------|
A|---------------------------------------------------------------------------------------------------------------------------|
E|---------------------------------------------------------------------------------------------------------------------------|
   
E|-21b-21b-21b-21b-21b-21b-19-21-21b-21-19-21-21b-19h21p19-19-18-19--18h19p18------------------------------------------------|
B|----------------------------------------------------------------------------21-21-21--19----19-21b21--19h21-21-19-21-19----|
G|-----------------------------------------------------------------------------------------20-----------------------------20-|
D|---------------------------------------------------------------------------------------------------------------------------|
A|---------------------------------------------------------------------------------------------------------------------------|
E|---------------------------------------------------------------------------------------------------------------------------|
reproducciones 10.898

0 comentarios

mostrar más comentarios

¿Conseguiste tocar?

35 tocaron 1 aún no

¡Graba un vídeo tocando Wet Sand y envianoslo!

00:00 / 00:00
outros vídeos desta música
repetir qualidade Automático
Outros vídeos desta música
00:00 / 00:00
Automático
OK