Cifra Club

Aprenda

All I Want Is More

Reel Big Fish

Tablatura: Principal (guitarra)
Tom: A
Album-Turn The Radio Off
Tabbed by-reelbigfish432/Duncan s

Tab Legend:
/-slide up
\-slide down
x-string mute
pm and .-palm mute
h-hammer on
p-pull off
b-bend
r-return bend
^-strummed arpeggiated chord
~-vibrato

Intro:
note:the strummed arpeggiated chord is only used the first time round in the intro
   ^ 
E|-5-5-x-5--4-x-4--5-x-5--2/3-3-|
B|-5-5-x-5--5-x-5--7-x-7--2/3-3-|
G|-6-6-x-6--6-x-6--7-x-7--3/4-4-|
D|-7-7-x-7--6-x-6--7-x-7--4/5-5-|
A|------------------------------|
E|------------------------------|

E|-5-5-x-5--4-x-4--5-x-5--8-8-|
B|-5-5-x-5--5-x-5--7-x-7--8-8-|
G|-6-6-x-6--6-x-6--7-x-7--7-7-|
D|-7-7-x-7--6-x-6--7-x-7--6-6-|
A|----------------------------|
E|----------------------------|

do this next riff 3 times 
E|-5-5-x-5--4-x-4--5-x-5\--2/3-3-|
B|-5-5-x-5--5-x-5--7-x-7\--2/3-3-|
G|-6-6-x-6--6-x-6--7-x-7\--3/4-4-|
D|-7-7-x-7--6-x-6--7-x-7\--4/5-5-|
A|-------------------------------|
E|-------------------------------|

then do this once
E|-5-5-x-5--4-x-4--5-x-5--8-8-|
B|-5-5-x-5--5-x-5--7-x-7--8-8-|
G|-6-6-x-6--6-x-6--7-x-7--7-7-|
D|-7-7-x-7--6-x-6--7-x-7--6-6-|
A|----------------------------|
E|----------------------------|

Pre-1st-Verse
E|------------------------------------------|
B|------------------------------------------|
G|-------------6--6-6-6-6--7--7-7-7-7-------|
D|-7--7-7-7-7--6--6-6-6-6--7--7-7-7-7--4--5-|x4
A|-7--7-7-7-7--4--4-4-4-4--5--5-5-5-5--4--5-|
E|-5--5-5-5-5--------------------------2--3-|

E|----------------------------------------|
B|----------------------------------------|
G|-------------6--6-6-6-6--7-6----7-6-----|
D|-7--7-7-7-7--6--6-6-6-6--7-6-7--7-6-7-2-|
A|-7--7-7-7-7--4--4-4-4-4--5-4-7--5-4-7-2-|
E|-5--5-5-5-5------------------5------5-0-|

Pre-Verse:
E|----------------|
B|-/5-5-5-5-3-2---|
G|--------------2-|
D|----------------|x2
A|----------------|
E|----------------|

E|---------------------------|
B|-/5-5-5-5-3-2--3-3-3-3-2-0-|
G|---------------------------|
D|---------------------------|
A|---------------------------|
E|---------------------------|

Verse:
 pm--------------------------------              
E|----------------------------------|
B|----------------------------------|
G|----------------------------------|
D|----------------------------------|
A|-7-7-7-7-7-7-7-7--2-2-2-2-2-2-2-2-|
E|-5-5-5-5-5-5-5-5--0-0-0-0-0-0-0-0-|
   . . . . . . . .  . . . . . . . .

 pm--------------------------------
E|----------------------------------|
B|----------------------------------|
G|----------------------------------|
D|------------------7-7-7-7-7-7-7-7-|x3
A|-4-4-4-4-4-4-4-4--5-5-5-5-5-5-5-5-|
E|-2-2-2-2-2-2-2-2------------------|    
   . . . . . . . .  . . . . . . . . 

 pm--------------------------------              
E|----------------------------------|
B|----------------------------------|
G|----------------------------------|
D|----------------------------------|
A|-7-7-7-7-7-7-7-7--2-2-2-2-2-2-2-2-|
E|-5-5-5-5-5-5-5-5--0-0-0-0-0-0-0-0-|
   . . . . . . . .  . . . . . . . .

 pm---------------
E|--------------------------|
B|--------------------------|
G|------------------7-----9-|
D|------------------7--7--9-|
A|-4-4-4-4-4-4-4-4--5--7--7-|
E|-2-2-2-2-2-2-2-2-----5----|    
   . . . . . . . .   

note:gradually release pm on the 2s and 4s


Chorus:
E|------------------------------------------|
B|------------------------------------------|
G|-------------6--6-6-6-6--7--7-7-7-7-------|
D|-7--7-7-7-7--6--6-6-6-6--7--7-7-7-7--4--5-|x3
A|-7--7-7-7-7--4--4-4-4-4--5--5-5-5-5--4--5-|
E|-5--5-5-5-5--------------------------2--3-|

E|----------------------------------------------|
B|----------------------------------------------|
G|-------------6--6-6-6-6--7--7-7-7-7-----------|
D|-7--7-7-7-7--6--6-6-6-6--7--7-7-7-7--4--5-5-2-|
A|-7--7-7-7-7--4--4-4-4-4--5--5-5-5-5--4--5-5-2-|
E|-5--5-5-5-5--------------------------2--3-3-0-|

then play the pre verse once, the verse once, and the chorus once but on the
4th repeat of the chorus instead of going down to the e chord it goes


E|--------------------------------|
B|--------------------------------|
G|-9-----10-10-9----7-----8-8-7---|
D|-9-------------9--7-----------7-|
A|-7-7-7------------5-5-5---------|
E|--------------------------------|

E|------------------------------|
B|------------------3-2---3-2---|
G|-9-----10-10-9--------2-----2-|
D|-9-------------9--------------|
A|-7-7-7------------------------|
E|------------------------------|

Solo:
E|----------------------------------------------------|
B|----------------------------------------------------|
G|----------------------------------------------------|
D|-6h7-7-7-6h7-7-7-6h7-7-7-6h7-7-7-6h7-7-7-6h7-7-7/14-|
A|----------------------------------------------------|
E|----------------------------------------------------|

note:let the 14s ring
E|-------------------------------------------|
B|-------------------------------15-14-12----|
G|-----14-----14-----14-16-14-16----------14-|
D|-/14-----14-----14-------------------------|
A|-------------------------------------------|
E|-------------------------------------------|

note:the first pull off is faster then the other notes
E|-10p9-12-9-10-9-12-9-10-9-12-9-10-9-12-9-10-9-|
B|----------------------------------------------|
G|----------------------------------------------|
D|----------------------------------------------|
A|----------------------------------------------|
E|----------------------------------------------|

E|-12-9-10-9-12-9-10-9-/14-12-9-10-9----10-9---------------|
B|-----------------------------------10------10-12-10-9-10-|
G|---------------------------------------------------------|
D|---------------------------------------------------------|
A|---------------------------------------------------------|
E|---------------------------------------------------------|

then an extended chorus, then pre verse then intro riff fading out

thats it. comment rate or iimprovements are welcome enjoy it!
Compositor Aaron Barrett / Adam Polakoff / Matt Wong
17 reproducciones
    • ½ Tom
    • A
    • Bb
    • B
    • C
    • Db
    • D
    • Eb
    • E
    • F
    • F#
    • G
    • Ab
  • Adicionar à lista

    0 comentarios

    Mostrar mais comentários

    ¿Conseguiste tocar?

    0 Tocaron 0 Ainda não

    Grave um vídeo tocando All I Want Is More e mande pra gente!

    00:00 / 00:00
    outros vídeos desta música
    repetir qualidade Automático
    Outros vídeos desta música
    00:00 / 00:00
    Automático
    OK