Cifra Club

Average Man

Reel Big Fish

Cifrado: Principal (guitarra y guitarra eléctrica)
tono: A
Tabbed by: Chris Johnert
Email: *

Tuning: Standard EADGBE

Intro:

e|----------------------|
B|----------------------|
G|----------------------|
D|----------------------| 2x
A|------4^5-------------|
E|-4^5-------2-1-0--5-5-|

Verse:

e|----------------------|
B|----------------------|
G|----------------------|
D|----------------------| 4x
A|------4^5-------------|
E|-4^5-------2-1-0--5-5-|

Chorus:

e|-------------------------|
B|-------------------------|
G|-------------------------|
D|-------------------------| 2x
A|-4^5--5^7--7-7-----------|
E|----------------5--5-5-5-|

e|---------------------------------------|
B|---------------------------------------|
G|---------------------------------------|
D|---------------------------------------|
A|-4^5--5^7--7-7-----------4^5--5^7--7-7-|
E|---------------5-5--4-2----------------|

Bridge:

e|----------------------|
B|----------------------|
G|----------------------|
D|----------------------| 2x
A|------4^5-------------|
E|-4^5-------2-1-0--5-5-|

e|--------------|
B|--------------|
G|--------------|
D|--------------| 3x
A|--------------|
E|-5-4-3--3-4-5-|

e|--------------------------|
B|--------------------------|
G|--------------------------|
D|--------------------------|
A|--------------------------|
E|-5-4-3--2-1-0--0-2-3--4^5-|

Ending:

e|---------------------------|
B|---------------------------|
G|---------------------------|
D|---------------------------| 4x
A|------4^5------------------|
E|-4^5-------2-1-0--5-5--4^5-|
Compositor não encontrado.
16 vistas
    • ½ Tono
    • A
    • Bb
    • B
    • C
    • Db
    • D
    • Eb
    • E
    • F
    • F#
    • G
    • Ab
  • Agregar a la lista

    0 comentarios

    Ver todos los comentarios

    ¿Lograste tocar?

    0 Tocaron 0 Aún no

    ¡Graba un video tocando Average Man y envíanoslo!

    00:00 / 00:00
    Outros vídeos desta música
    Repetir Calidad Automático
    Outros vídeos desta música
    00:00 / 00:00
    Automático
    OK