Cifra Club

Aprenda

Good Thing

Reel Big Fish

Tablatura: Principal (guitarra)
Tom: G
Intro:

(Guitarra 2)
E|---------------------------------|
B|---------------------------------|
G|-5--5-5---------3--3-3-----------|   (6x)
D|-5--5-5--5------3--3-3--3---3-3-3|
A|-3--3-3--5------1--1-1--3---3-3-3|
E|---------3--------------1---1-1-1|
                              * * *

(Guitarra 1)
E|------------------------------------|
B|------------------------------------|
G|-5--5-5------------3--3-3-----------|
D|-5--5-5--5---10\3--3--3-3--3---3-3-3|
A|-3--3-3--5---10\3--1--1-1--3---3-3-3|
E|---------3----8\1----------1---1-1-1|
                                 * * *

E|-----------------------------------------|
B|-----------------------------------------|
G|-5--5-5-----------------3--3-3-----------|
D|-5--5-5--5--8/10-10\3---3--3-3--3---3-3-3|
A|-3--3-3--5--8/10-10\3---1--1-1--3---3-3-3|
E|---------3--6/8--8\1------------1---1-1-1|
                                      * * *
E|---------------------------------|
B|---------------------------------|
G|-5--5-5---------3--3-3-----------|   (2x)
D|-5--5-5--5------3--3-3--3---3-3-3|
A|-3--3-3--5------1--1-1--3---3-3-3|
E|---------3--------------1---1-1-1|
                              * * *

Verso:

(Guitarra 1 e 2)
E|--------------------------|
B|--------------------------|
G|-5--5-5---------3--3-3----|   (3x)
D|-5--5-5--5------3--3-3--3-|
A|-3--3-3--5------1--1-1--3-|
E|---------3--------------1-|

E|------------------------------------------------------------|
B|------------------------------------------------------------|
G|-5--5-5-----------------------------10-10-10-10-10-10-10-10-|
D|-5--5-5--5------5\3-3-3-3-3-3-3-3-3-10-10-10-10-10-10-10-10-|
A|-3--3-3--5------5\3-3-3-3-3-3-3-3-3-8--8--8--8--8--8--8--8--|
E|---------3------3\1-1-1-1-1-1-1-1-1-------------------------|

Refrão:

(Guitarra 1 e 2)
E|-----------------------------------|
B|-----------------------------------|
G|-5--5-5-7--7-7-7-------------------|   (4x)
D|-5--5-5-7--7-7-7---3--3-3-5--5-5-5-|
A|-3--3-3-5--5-5-5---3--3-3-5--5-5-5-|
E|-------------------1--1-1-3--3-3-3-|

Ponte 1:

(Guitarra 1)
E|--------------------------|
B|--------------------------|
G|-5--5-5--7----------------|   (2x)
D|-5--5-5--7------3--3-3--5-|
A|-3--3-3--5------3--3-3--5-|
E|----------------1--1-1--3-|

E|---------------------------------|
B|---------------------------------|
G|-5--5-5---------3--3-3-----------|   (2x)
D|-5--5-5--5------3--3-3--3---3-3-3|
A|-3--3-3--5------1--1-1--3---3-3-3|
E|---------3--------------1---1-1-1|
                              * * *
(Guitarra 2)
E|--------------------------|
B|--------------------------|
G|-5--5-5--7----------------|   (2x)
D|-5--5-5--7------3--3-3--5-|
A|-3--3-3--5------3--3-3--5-|
E|----------------1--1-1--3-|

E|------------------------------------------------------|
B|------------------------------------------------------|
G|------5-5~--7b8r7--5-5~------5-5~------------------5~-|
D|--5-7-------------------5-7-------7--7-7-7-8-7-5~-----|
A|------------------------------------------------------|
E|------------------------------------------------------|

Ponte 2:

(Guitarra 1 e 2)
E|--------------------------|
B|--------------------------|
G|-5--5-5--7----------------|   (3x)
D|-5--5-5--7------3--3-3--5-|
A|-3--3-3--5------3--3-3--5-|
E|----------------1--1-1--3-|

E|---------------------------------|
B|---------------------------------|
G|-5--5-5--7-----------------------|
D|-5--5-5--5---5\3-3-3-3-3-3-3-3-3-|
A|-3--3-3--5---5\3-3-3-3-3-3-3-3-3-|
E|-------------3\1-1-1-1-1-1-1-1-1-|

(Guitarra 1 e 2)
E|---------------------------------------------------------------|
B|---------------------------------------------------------------|
G|-2---2---------------------------------------------------------|
D|-2---2-----------2---2-2-2-2-2-2-3-3-3-3-3-3-3-3-7--7-5--5-5-5-|
A|-0---0---3-2-0---2---2-2-2-2-2-2-3-3-3-3-3-3-3-3-7--7-5--5-5-5-|
E|---------------2-0---0-0-0-0-0-0-1-1-1-1-1-1-1-1-5--5-3--3-3-3-|

E|-------------------------------------------------------------------------|
B|-------------------------------------------------------------------------|
G|-2---2-------------------------------------------10-10-10-10-10-10-10-10-|
D|-2---2-----------2---2-2-2-2-2-2-3-3-3-3-3-3-3-3-10-10-10-10-10-10-10-10-|
A|-0---0---3-2-0---2---2-2-2-2-2-2-3-3-3-3-3-3-3-3--8--8--8--8--8--8--8--8-|
E|---------------2-0---0-0-0-0-0-0-1-1-1-1-1-1-1-1-------------------------|

Solo:

(Guitarra 1)
E|-----------------------15b--15b-15b-15-13-12-13-15------------------------------|
B|-15br--15br--15br-13~------------------------------13~----------------------13~-|
G|--------------------------------------------------------12-12-12--12--12-14-----|
D|--------------------------------------------------------------------------------|
A|--------------------------------------------------------------------------------|
E|--------------------------------------------------------------------------------|
                                                          *  *  *   *
E|---------------------15------------12-12-13-14-15---------------------------------|
B|-------13-15br--15br----15br--13~-----------------15br-15br-15br--13~-------------|
G|-12-14---------------------------------------------------------------15-14~-------|
D|----------------------------------------------------------------------------15-14-|
A|----------------------------------------------------------------------------------|
E|----------------------------------------------------------------------------------|

E|----------------------------------------------------------------|
B|-------------------------------------------------12-15-13~~-13\-|
G|-------------------------------------------12-14----------------|
D|-15-14-12-10-12-14-12-10-------12-10-12-14----------------------|
A|-------------------------12-10----------------------------------|
E|----------------------------------------------------------------|

(Guitarra 2)
E|--------------------------|
B|--------------------------|
G|-5--5-5---------3--3-3----|   (3x)
D|-5--5-5--5------3--3-3--3-|
A|-3--3-3--5------1--1-1--3-|
E|---------3--------------1-|

E|------------------------------------------------------------|
B|------------------------------------------------------------|
G|-5--5-5-----------------------------10-10-10-10-10-10-10-10-|
D|-5--5-5--5------5\3-3-3-3-3-3-3-3-3-10-10-10-10-10-10-10-10-|
A|-3--3-3--5------5\3-3-3-3-3-3-3-3-3-8--8--8--8--8--8--8--8--|
E|---------3------3\1-1-1-1-1-1-1-1-1-------------------------|

Outro:

(Guitarra 1)
E|-----------------------|
B|-----------------------|
G|-x5x5/7x7x5x-----------|   (3x)
D|-x5x5/7x7x7x3x3/5x5x5x-|
A|-x3x3/5x5x7x3x3/5x5x5x-|
E|------------1x1/3x3x3x-|

E|---------------------------|
B|---------------------------|
G|-x5x5/7x7x5x----------5-5~-|
D|-x5x5/7x7x7x3x3/5-5-7-5-5~-|
A|-x3x3/5x5x7x3x3/5-5-7-3-3~-|
E|------------1x1/3-3-5------|

I never felt too good but in this world who would
I was always thinkin' somethin' wasn't right
But then you came along and helped me sing a song and
now I feel ok I hope it can stay- this way

You know we've got a good thing goin' and I don't wanna see it end
You know we've got a good thing goin' and I don't wanna see it end
Are these the good days that I've heard so much about
there goes the heartbreak that I can live without

I've been so frustrated, bitter, mean, and jaded
I've taken for granted all the things I've got
But now that you are here this anger disappears
and I feel happy too this is sappy but it's true

You know we've got a good thing goin' and I don't wanna see it end
You know we've got a good thing goin' and I don't wanna see it end
Are these the good days that I've heard so much about
there goes the heartbreak that I can live without
Are these the good days that I've heard so much about
there goes the heartbreak that I can live...without

My hearts breaks...I can live without
My hearts breaks, My hearts breaks, I can live, live without

You know we've got a good thing goin' and I don't wanna see it end
You know we've got a good thing goin' and I don't wanna see it end
Are these the good days? (You know we've got a good thing goin')
Are these the good days? (and I don't wanna see it end)
Are these the good days? (You know we've got a good thing goin')
Are these the good days? (and I don't wanna see it end)
Compositor Reel Big Fish
Colaboración y revision:
  • Douglas Leri
19 reproducciones
    • ½ Tom
    • A
    • Bb
    • B
    • C
    • Db
    • D
    • Eb
    • E
    • F
    • F#
    • G
    • Ab
  • Adicionar à lista

    0 comentarios

    Mostrar mais comentários

    ¿Conseguiste tocar?

    0 Tocaron 0 Ainda não

    Grave um vídeo tocando Good Thing e mande pra gente!

    00:00 / 00:00
    outros vídeos desta música
    repetir qualidade Automático
    Outros vídeos desta música
    00:00 / 00:00
    Automático
    OK