Cifra Club

Aprenda

Good Thing

Reel Big Fish

Tab de bajo: Versão 2
Ok so this is the 'basic' tab - by this I mean there are fills here and there if you 
carefully to the song, but I havn't included all of these! Add them in as you please or 
make up your own (much more fun! ;))

Enjoy!


Tabbed By : Chrisjbee
e-mail: *


1st Verse:
G-------------------------------|
D-------------------------------| x2
A--3-0-3--------1-0-1-----------|
E-----------3----------1--1-1-1-|

G-------------------------------|
D-------------------------------| x5
A--3-0-3--------1-0-1-----------|
E-----------3----------1--------|

G-------------------------------|
D-------------------------------|
A--3-0-3------------------------|
E-----------3-------------------|

into chorus:
G------------------------------------|
D-------------------/3-3-3-3-3-3-3-3-|
A------------------------------------|
E-1-1-1-1-1-1-1-1--------------------|


Chorus:
G----------------------------------|
D------------------3-3-3--5-5-5-5--|
A-3-3-3--5-5-5-5-------------------|
E----------------------------------|

G-----------------------------------|
D-----------------3-3-3-3-3-5-3-2-0-|
A-3-3-3--5-5-5-5--------------------|
E-----------------------------------|

2nd verse
G-------------------------------|
D-------------------------------|  x2
A-3-3-3--5----------------------|
E---------------1-1-1--3--------|

G-------------------------------|
D-------------------------------|
A-3-0-3--------1-0-1------------|
E-----------3----------1--1-1-1-|

G-------------------------------|
D-------------------------------| x3
A-3-0-3--------1-0-1------------|
E-----------3----------1--------|


G-------------------------------|
D-------------------------------|
A--3-0-3------------------------|
E-----------3-------------------|


into chorus
G------------------------------------|
D-------------------/3-3-3-3-3-3-3-3-|
A------------------------------------|
E-1-1-1-1-1-1-1-1--------------------|


Chorus
G----------------------------------|
D------------------3-3-3--5-5-5-5--|
A-3-3-3--5-5-5-5-------------------|
E----------------------------------|

G-----------------------------------|
D-----------------3-3-3-3-3-5-3-2-0-|
A-3-3-3--5-5-5-5--------------------|
E-----------------------------------|

3rd verse
G--------------------------------|
D--------------------------------|  x3
A--3-3-3--5----------------------|
E---------------1-1-1--3---------|

G--------------------------------|
D--------------------------------|
A--3-3-3--5----------------------|
E------------1-1-1-1-1-1-1-1-----|

Bridge:
G---------------------------------|
D---------------------------------|
A-----3-------------------3-2-3---|
E-5-5---5-3-1-0-0-0-1-1-1---------|

G----------------------------------|
D----------------------------------|
A-----3----------------------------|
E-5-5---5-3-1-0-0-0-1-1-1--1-1-1-1-|

Guitar solo
G-------------------------------|
D-------------------------------| x3
A--3-0-3--------1-0-1-----------|
E-----------3-------------------|

G--------------------------------|
D--------------------------------|
A--3-0-3-------------------------|
E-----------3----1-1-1-1-1-1-1-1-|

Chorus to fade
G----------------------------------|
D------------------3-3-3--5-5-5-5--|
A--3-3-3--5-5-5-5------------------|
E----------------------------------|

G-----------------------------------|
D-----------------3-3-3-3-3-5-3-2-0-|
A--3-3-3--5-5-5-5-------------------|
E-----------------------------------|
Compositor Reel Big Fish

0 comentarios

Mostrar mais comentários

¿Conseguiste tocar?

0 Tocaron 0 Ainda não

Grave um vídeo tocando Good Thing e mande pra gente!

00:00 / 00:00
outros vídeos desta música
repetir qualidade Automático
Outros vídeos desta música
00:00 / 00:00
Automático

Cifra Club Pro

Aproveite o Cifra Club com benefícios exclusivos e sem anúncios
7 dias grátis
Cifra Club Pro
Aproveite o Cifra Club com benefícios exclusivos e sem anúncios
7 dias grátis
OK