Cifra Club

Aprenda

Kiss Me Deadly Solo

Reel Big Fish

Tablatura: Principal (guitarra)
Tom: D#
Kiss Me Deadly (trumpet solo)

I'm sure that this is the right way to play it. its originaly supposed to be for a 
but i found out a nice way to play it with a guitar. Pretty easy, just listen to the song to 
the timing

by the way this is my first tab.


e|-8-10-11v--10-8----------------------------------|
B|-----------------11--9-8-9------8h9p8------------|
G|----------------------------8h10------10-8--8-10-|
D|-------------------------------------------------|
A|-------------------------------------------------|
E|-------------------------------------------------|


e|--8-8h10h11-13-15-13-11-10-8------8/--10-|
B|------------------------------11--11--11-|
G|-----------------------------------------|
D|-----------------------------------------|
A|-----------------------------------------|
E|-----------------------------------------|

Playing on the 11th fret on the B string the last 2 times is optional but i think it 
pretty cool because the first chord sounds akward and the next one is nice lol

Rock On!
21 reproducciones
    • ½ Tom
    • A
    • Bb
    • B
    • C
    • Db
    • D
    • Eb
    • E
    • F
    • F#
    • G
    • Ab
  • Adicionar à lista

    0 comentarios

    Mostrar mais comentários

    ¿Conseguiste tocar?

    0 Tocaron 0 Ainda não

    Grave um vídeo tocando Kiss Me Deadly Solo e mande pra gente!

    00:00 / 00:00
    outros vídeos desta música
    repetir qualidade Automático
    Outros vídeos desta música
    00:00 / 00:00
    Automático
    OK