Cifra Club

Aprenda

Nothin

Reel Big Fish

Tab de bajo: Principal
* = natural harmonic

Intro: Guitar bit
Fall in Chorus:
G|------------------|------------------|
D|---------23-------|---------23-/75---|
A|------------------|-33333333---------|
E|-------------53---|------------------|

Chorus:
G|------------------|------------------|
D|---------23-------|---------23-/75---|
A|-33333333---------|-33333333---------|
E|-------------53---|------------------|

Verse:
G|------------------|------------------|------------------|------------------|
D|-----------232----|---------33332-2--|-----------232----|------------------|
A|-----3---35---53--|-----3--------5---|-----3---35---53--|-----3------------|
E|-5-5--03----------|-5-5--03----------|-5-5--03----------|-5-5--03-/12\-----|

Fill:
G|------------------|
D|------------------|
A|------------------|
E|-1111111133335533-|

Chorus
Verse
Fill
Chorus
Bridge:
G|------------------|------------------|------------------|------------------|
D|------------------|-----------5-5-5--|------------------|------------------|
A|------------------|------------------|------------------|------------------|
E|-555557h8753-3-3--|-11113h530--------|-555557h8753-3-3--|-111113h5-0-0-0---|

Fill 2:
G|------------------|
D|------------------|
A|------------------|
E|-1111111133-3-1-3-|

Ska Riff:
G|------------------|------------------|------------------|------------------|
D|---------55-3-2---|------------------|---------55-3-2---|-55-5-5-55--------|
A|-3-333-3--------3-|---------33-1-013-|-3-333-3--------3-|------------------|
E|------------------|-1-111-1----------|------------------|-------------1-3--|

G|------------------|------------------|------------------|-------------5----|
D|---------55-3-2---|------------------|---------55-3-2---|-55-5-5-55/--*----|
A|-3-333-3--------3-|---------33-1-0---|-3-333-3--------3-|------------------|
E|------------------|-1-111-1--------1-|------------------|------------------|

G|------------------|------------------|------------------|------------------|
D|---------55-3-2---|------------------|---------55-3-2---|-55-5-5-55-55-5-5-|
A|-3-333-3--------3-|---------33-1-0---|-3-333-3--------3-|------------------|
E|------------------|-1-111-1--------1-|------------------|------------------|

Faster:
G|------------------|---------------------|
D|--532-532---------|--532-532/555/171717-|
A|-3---3----310-310-|-3---3---------------|
E|---------1---1----|---------------------|

Punk part: 
G|------------------|------------------|------------------|------------------|
D|------------------|------------------|------------------|------------------|
A|-33333333---------|-33333333---------|-33333333---------|-33333333---------|
E|---------11111111-|---------3-5-7-8--|---------11111111-|---------3-3-3-3--|

G|------------------|------------------|
D|------------------|------------------|
A|-33333333---------|-3----------------|
E|---------11111111-|------------------|

End with:
G|------------------|------------------|
D|---------23-------|------------------|
A|-33333333---------|-3----------------|
E|-------------53---|------------------|

Compositor Aaron Barrett
12 reproducciones

0 comentarios

Mostrar mais comentários

¿Conseguiste tocar?

0 Tocaron 0 Ainda não

Grave um vídeo tocando Nothin e mande pra gente!

00:00 / 00:00
outros vídeos desta música
repetir qualidade Automático
Outros vídeos desta música
00:00 / 00:00
Automático
OK