Cifra Club

Aprenda

So Much For Rock And Roll

Reel Big Fish

Tablatura: Principal (guitarra)
Tom: G#
It's off of the live album, there's another tab on here, but it didn't sound right for
Either way, I'm going to tab what I hear in the song. It should be pretty legitimate, the
is pretty basic.


Intro
e|----------|----------|----------|-------------|
B|-88x-8-88-|----------|-88x-8-88-|-------------|
G|-88x-8-88-|----------|-88x-8-88-|-------------|
D|-88x-8-88-|-6--5-6-8~|-88x-8-88-|-10-----10-8-|  X2
A|----------|----------|----------|-----11------|
E|----------|----------|----------|-------------|


Pre-verse
e|---------|-----------|4-4x-4-4x-|8-8x-6-6x-|
B|-88x-8-8x|-8-8x-8-8x-|4-4x-4-4x-|8-8x-6-6x-|
G|-88x-8-8x|-8-8x-8-8x-|5-5x-5-5x-|9-9x-7-7x-|
D|-88x-8-8x|-8-8x-8-8x-|6-6x-6-6x-|1010x-8-8x|
A|---------|-----------|----------|----------|  X2
E|---------|-----------|----------|----------|

Verse:
e|---------|--------|--------|----------|
B|---------|--------|--------|----------|
G|-88888888|888888--|--------|5-55-3-33-|
D|-88888888|888888--|6-66-66-|5-55-3-33-|  X4
A|-66666666|666666--|6-66-66-|3-33-1-11-|
E|---------|--------|4-44-44-|----------|
   |Palm Mute-----|

Pre-chorus:
e|---------|------|---------|------|--------|--------|--------|--------|
B|---------|------|---------|------|--------|--------|--------|--------|
G|---------|------|---------|------|--------|--------|--------|--------|
D|--6-6-68-|8-8-8-|--6-6-68-|8-8-8-|66666666|66666666|88888888|88888888|
A|--6-6-68-|8-8-8-|--6-6-68-|8-8-8-|66666666|66666666|88888888|88888888|
E|--4-4-46-|6-6-6-|--4-4-46-|6-6-6-|44444444|44444444|66666666|66666666|
                                   |Palm Mute--------------------------|

Chorus:

e|--------6-x-6|-x-4-x-4-4-x-4|
B|88x-8-x-6-x-6|-x-4-x-4-4-x-4|
G|88x-8-x-7-x-7|-x-5-x-5-5-x-5|
D|88x-8-x-8-x-8|-x-6-x-6-6-x-6|  X3
A|-------------|--------------|
E|-------------|--------------|

And then finish the chorus with:
e|-------|--------|--------|-----|
B|-------|--------|--------|-----|
G|-------|--------|--------|8----|
D|-6--5--|3-------|6-------|8----| -> This power chord is played by the rhythm
A|-6--5--|3-------|6-------|6----|    guitar, but if your using one guitar,
E|-4--3--|1-------|4-------|-----|    ignore this chord and go on to play
                                    Pre-verse.

Pre-Verse x2

Verse x2

Pre-Chorus

Chorus

Intro

After you play the intro once, you do this, which starts the interlude:

e|----------|----------|----------|--------|
B|-88x-8-88-|----------|-88x-8-88-|--------|
G|-88x-8-88-|----------|-88x-8-88-|--------|
D|-88x-8-88-|-6--5-6-8~|-88x-8-88-|///////-|
A|----------|----------|----------|///////-|
E|----------|----------|----------|1/14\6--|

This is tricky. I do it by strumming the low E string on the fretboard around the 2nd or
fret, and right after you strum, begin the pick slide(////). while dragging the pick
the fretboard, do the slide with your finger close behind the pick slide. pick slide all 
way down, and then finish the slide by touching 14 and then stopping at 6.

After you end you slide at 6, its sets you at the spot to start this power progression:

Interlude:
e|------------|---------|------------|---------|-------|
B|------------|---------|------------|---------|-------|
G|88-88-------|---------|88-88-------|---------|-------|
D|88-88---5555|5566-66--|88-88---5555|5566-66--|-8-8-8-|  X3
A|66-66---5555|5566-44--|66-66---5555|5566-44--|-8-8-8-|
E|--------3333|3344-44--|--------3333|3344-44--|-6-6-6-|
                                               (On the third repeat, only hit
                                                2 chords here.)

Pre-Chorus

Chorus

Outro:
e|--------|--------|--------|--------|
B|--------|--------|--------|--------|
G|8-------|--------|--------|--------|
D|8-------|8-------|6-------|--------|
A|6-------|8-------|6-------|--------|
E|--------|6-------|4-------|--------|

And then:

e|-------|--------|--------|---------|----------|----------|--------|
B|-------|--------|--------|---------|----------|----------|--------|
G|-------|--------|--------|---------|----------|----------|3----8--|
D|-6--5--|3----5--|6----5--|3----5--6|----5--3--|--5--6----|3----8--|
A|-6--5--|3----5--|6----5--|3----5--6|----5--3--|--5--6----|1----6--|
E|-4--3--|1----3--|4----3--|1----3--4|----3--1--|--3--4----|--------|
Compositor Reel Big Fish
14 reproducciones
    • ½ Tom
    • A
    • Bb
    • B
    • C
    • Db
    • D
    • Eb
    • E
    • F
    • F#
    • G
    • Ab
  • Adicionar à lista

    0 comentarios

    Mostrar mais comentários

    ¿Conseguiste tocar?

    0 Tocaron 0 Ainda não

    Grave um vídeo tocando So Much For Rock And Roll e mande pra gente!

    00:00 / 00:00
    outros vídeos desta música
    repetir qualidade Automático
    Outros vídeos desta música
    00:00 / 00:00
    Automático
    OK