Cifra Club

Aprenda

So Much For Rock And Roll

Reel Big Fish

Tab de bajo: Principal
This song is of the live album.


Intro:
G----------------------------------------|
D----------------------------------------|
A--6----------------6--------------------|x2
E-----4-3-4-6----------8-4-8-6-----------|


Verse 1:
G----------------------------------------------------|
D-------8-6-5---5----------------------5-------------|
A--6-6------------8-6--3--------6----3---3----8------|x2
E------------------------6-4--4---4---------6--------|


Verse 2:
G----------------------------------------------------|
D------------------------------5---------------------|
A--666666666666666------6----3---3----8--------------|x4
E-------------------4-4---4---------6----------------|


Pre-Chorus:       Then:
G--------------   |--------------------------------------------|
D--------------   |--------------------------------------------|
A--------------x2 |--------------------------------------------|
E---4444-6666--   |--444444444444444--666666666666666----------|


Chorus:
G---------------8-7-5-----------------------------|
D----8-6-5------------8-6-6-66--------------------|
A-66-------8-6------------------------------------|x3
E-------------------------------4--3--------------|


Post-Chorus:
G---------------------|
D---------------------|
A---------------------|
E-1---1-4---4---------|


Verse 1:x2
Verse 2:x4
Pre-Chorus:x1
Chorus:x3
Post-Chorus:x1
Intro:x2

Interlude:
G-----------------------------------------------------|
D-----------------------------------------------------|
A--66-6--------------------66-6-----------------------|x3
E--------3333-44-4---------------3333-44-4---6-6-6----|

Pre-Chorus:x1
Chorus:x1
Post-Chorus:x1
Verse:x3
Post-Chorus:x3


End On:
G-----
D-----
A--6--
E-----

Thats it.
Great Song.

Tabbed by coletrain
aka peter
Compositor Reel Big Fish
11 reproducciones

0 comentarios

Mostrar mais comentários

¿Conseguiste tocar?

0 Tocaron 0 Ainda não

Grave um vídeo tocando So Much For Rock And Roll e mande pra gente!

00:00 / 00:00
outros vídeos desta música
repetir qualidade Automático
Outros vídeos desta música
00:00 / 00:00
Automático
OK